Guitar Tabs, Chords and Lyrics


Turkey Bacon   Misc. Unsigned Bands



Intro/Verse:
Tyler
e|--------------------------------------------|
B|--------------------------------------------|
G|--------------------------------------------|
D|--------------------------------------------|
A|----5-7-8-----5-7-8-----5-7-8-----5h7---7h8-|
D|-0-0-0-0-0-0-0-0-0-0-8-8-8-8-7-7-7---5-5----|

Ryan
e|---------------------------------------------------------|
B|---------------------------------------------------------|
G|---------------------------------------------------------|
D|---------------------------------------------------------|
A|----8-10-12-----8-10-12-----8-10-12-----8h10-----7h8-----|
D|-0-0-0--0--0-0-0-0--0--0-8-8-8--8--10-10----10-11---11---|

Chorus:
Tyler
e|---------------------------------------------|
B|---------------------------------------------|
G|-----10-10-10-10-10-10-----12-12-12-12-12-12-|
D|-0-0-------------------3-3-------------------|
A|-0-0--8--8--8--8--8--8-3-3-10-10-10-10-10-10-|
D|-0-0-------------------3-3-------------------|

e|--------------------------------------------|
B|--------------------------------------------|
G|-----14-14-14-14-14-------15-15-14-14-12-12-|
D|-8-8----------------10-10-------------------|
A|-8-8-12-12-12-12-12-10-10-13-13-12-12-10-10-|
D|-8-8----------------10-10-------------------|

Ryan:
e|---------------------------------------|
B|---------------------------------------|
G|-----7-7-7-7-7-7-----10-10-10-10-10-10-|
D|-0-0-------------3-3-------------------|
A|-0-0-5-5-5-5-5-5-3-3-8--8--8--8--8--8--|
D|-0-0-------------3-3-------------------|

e|------------------------------------------|
B|------------------------------------------|
G|-----10-10-10-10-10-10------10-10-9-9-7-7-|
D|-8-8------------------10-10---------------|
A|-8-8-8--8--8--8--8--8-10-10-8--8--7-7-5-5-|
D|-8-8------------------10-10---------------|

Versex4

Chorusx2

Solos:
e|---------------------------------|
B|---------------------------------|
G|---------------------------------|
D|-0-0-0-0-8-8-8-8-3-3-3-3-2-2-2-2-|
A|-0-0-0-0-8-8-8-8-3-3-3-3-2-2-2-2-|
D|-0-0-0-0-8-8-8-8-3-3-3-3-2-2-2-2-|

Versex4

Chorusx4

End On:
e|---
B|---
G|---
D|-0-
A|-0-


Important: The song above is NOT stored on the Chordie server. The original song is hosted at www.guitaretab.com. Chordie works as a search engine and provides on-the-fly formatting. Chordie does not index songs against artists'/composers' will. To remove this song please click here.

This song is displayed as text-only. Transposing and tuning is only available for chordpro-songs.

Login - add to songbook

Rating click stars to rate

Layout
Accuracy

SHARE PAGE  




You need to log in to post comments