Guitar Tabs, Chords and Lyrics


Worst Part  Misc. Unsigned Bands

e|---------------------------------------------------------------------------|


B|---------------------------------------------------------------------------|


G|-2-1---2-1---2-1---2-1---2-1-2-1-------------------------------------------|x8

D|---------------------------------------------------------------------------|
A|---------------------------------------------------------------------------|
E|---------------------------------------------------------------------------|
[D5]I wanted to t[A5]ell you w[E5]hat it wa[D5]s
But [A5]I was af[E5]raid
[D5]I wanted to t[A5]ell you i[E5]t was love  [D5]
But [A5]I was ash[E5]amed
e|---------------------------------------------------------------------------|
B|---------------------------------------------------------------------------|
G|-2-1---2-1---2-1---2-1---2-1-2-1—(x3)- 2-1---2-1---2-1---2-1---2-1-2-1-2-4-|
D|---------------------------------------------------------------------------|
A|---------------------------------------------------------------------------|
E|---------------------------------------------------------------------------|



[D5]I wanted to kno[A5]w
I [E5]wanted to s[D5]ee
I wanted th[A5]e same as [E5]anyone
[D5]But all that you lo[A5]ve
And a[E5]ll that you[D5] need
Are more than c[A5]ould come fro[E5]m anyone
e|---------------------------------------------------------------------------|
B|---55555555-3-2(x3)--------------------------------------------------------|
G|---------------------------------------------------------------------------|
D|---------------------------------------------------------------------------|
A|---------------------------------------------------------------------------|
E|---------------------------------------------------------------------------|



And the w[F#5]orst part [A5]is ha[B5]ving no i[G5]dea
The[F#5] worst part i[A5]s havi[B5]ng no i[G5]dea
The[F#5] worst part i[A5]s havi[B5]ng no i[G5]dea
[F#5]she sa[A5]id to[B5] me   [G5]   YEAH
[D5]I wanted to t[A5]ell her ever[E5]ything
[D5]But then it was gone [A5]as soon as i[E5]t came
[F#5]How did it chan[A5]ge
What di[B5]d you see
And did I j[G5]ust get it wrong?
And the w[F#5]orst part [A5]is ha[B5]ving no i[G5]dea
The[F#5] worst part i[A5]s havi[B5]ng no i[G5]dea
The[F#5] worst part i[A5]s havi[B5]ng no i[G5]dea
The[F#5] worst part i[A5]s havi[B5]ng no i[G5]dea
And the w[F#5]orst part [A5]is ha[B5]ving no i[G5]dea
The[F#5] worst part i[A5]s havi[B5]ng no i[G5]dea
The[F#5] worst part i[A5]s havi[B5]ng no i[G5]dea
The[F#5] worst part i[A5]s havi[B5]ng no i[G5]dea
[F#5]And I don’t know what to t[A5]ell you
cause I[B5] don’t know what you thi[G5]nk
[F#5]if it means a thing to [A5]you
then I [B5]hope that you come thro[G5]ugh
And the w[F#5]orst part [A5]is ha[B5]ving no i[G5]dea
The[F#5] worst part i[A5]s havi[B5]ng no i[G5]dea
The[F#5] worst part i[A5]s havi[B5]ng no i[G5]dea
The[F#5] worst part i[A5]s havi[B5]ng no i[G5]dea
Use the first riff for the outro of the song, and end with this one:


e|---------------------------------------------------------------------------|
B|---------------------------------------------------------------------------|
G|--2-1------------2-1-------------------------------------------------------|
D|-------4-2-0---------4-2-0----4--------------------------------------------|
A|-------------4-------------4--4--------------------------------------------|
E|------------------------------2--------------------------------------------|



www.myspace.com/breakingpangaea

Important: The song above is NOT stored on the Chordie server. The original song is hosted at www.guitaretab.com. Chordie works as a search engine and provides on-the-fly formatting. Chordie does not index songs against artists'/composers' will. To remove this song please click here.

Text color:
Chord color:
Chord grids: 
Font size:    
Page size: 

A5 B5 D5 E5 F#5 G5
variations - click chord images

Login - add to songbook

Transpose chords

Tuning

Rating click stars to rate

Layout
Accuracy

SHARE PAGE  




You need to log in to post comments