Guitar Tabs, Chords and Lyrics


Unknown For Now   Misc. Unsigned Bands



Intro:
e|----------------------------------------------------------------|
B|----------------------------------------------------------------|
G|----------------------------------------------------------------|
D|----------------------------------------------------------------|
A|----------------------------------------------------------------|
E|12--12-12--12-12-12--5--5-5--5-5-5--9--9-9--9-9-9--7--7-7--7-7-7|

Breakdown:
e|------------------------------------------|
B|------------------------------------------|
G|------------------------------------------|
D|------------------------------------------|
A|------------------------------------------|
E|7---7-7-7---7-7-7--7-7-7--7-7-777777777777|

Verse:
e|x---x--x---x--x--x---x--x-x--x-x-x--x--x-x--x-x-x--x--x-x--x-x-x|
B|x---x--x---x--x--x---x--x-x--x-x-x--x--x-x--x-x-x--x--x-x--x-x-x|
G|x---x--x---x--x--x---x--x-x--x-x-x--x--x-x--x-x-x--x--x-x--x-x-x|
D|x---x--x---x--x--x---x--x-x--x-x-x--x--x-x--x-x-x--x--x-x--x-x-x|
A|12--12-12--12-12-12--5--5-5--5-5-5--9--9-9--9-9-9--7--7-7--7-7-7|
E|12--12-12--12-12-12--5--5-5--5-5-5--9--9-9--9-9-9--7--7-7--7-7-7|

Verse 2:
e|x---x--x---x--x--x---x--x-x--x-x-x--x--x-x--x-x-x--x--x-x--x-x-x|
B|x---x--x---x--x--x---x--x-x--x-x-x--x--x-x--x-x-x--x--x-x--x-x-x|
G|x---x--x---x--x--x---x--x-x--x-x-x--x--x-x--x-x-x--x--x-x--x-x-x|
D|x---x--x---x--x--x---x--x-x--x-x-x--x--x-x--x-x-x--x--x-x--x-x-x|
A|12--12-12--12-12-12--7--7-7--7-7-7--5--5-5--5-5-5--9--9-9--9-9-9|
E|12--12-12--12-12-12--7--7-7--7-7-7--5--5-5--5-5-5--9--9-9--9-9-9|

Verse 3:
e|x---x--x---x--x--x---x--x-x--x-x-x--x--x-x--x-x-x--x--x-x--x-x-x|
B|x---x--x---x--x--x---x--x-x--x-x-x--x--x-x--x-x-x--x--x-x--x-x-x|
G|x---x--x---x--x--x---x--x-x--x-x-x--x--x-x--x-x-x--x--x-x--x-x-x|
D|x---x--x---x--x--x---x--x-x--x-x-x--x--x-x--x-x-x--x--x-x--x-x-x|
A|12--12-12--12-12-12--7--7-7--7-7-7--9--9-9--9-9-9--5--5-5--5-5-5|
E|12--12-12--12-12-12--7--7-7--7-7-7--9--9-9--9-9-9--5--5-5--5-5-5|

Chorus:
e|x---x--x---x--x--x---x---x--x---x--x--x---x---x--x---x--x--x---x--x-x--x-x-x|
B|x---x--x---x--x--x---x---x--x---x--x--x---x---x--x---x--x--x---x--x-x--x-x-x|
G|x---x--x---x--x--x---x---x--x---x--x--x---x---x--x---x--x--x---x--x-x--x-x-x|
D|x---x--x---x--x--x---x---x--x---x--x--x---x---x--x---x--x--x---x--x-x--x-x-x|
A|17--17-17--17-17-17--12--12-12--12-12-12--10--10-10--10-10-10--9--9-9--9-9-9|
E|17--17-17--17-17-17--12--12-12--12-12-12--10--10-10--10-10-10--9--9-9--9-9-9|

Chorus 2:
e|x---x--x---x--x--x---x---x--x---x--x--x---x--x-x--x-x-x--x--x-x--x-x-x|
B|x---x--x---x--x--x---x---x--x---x--x--x---x--x-x--x-x-x--x--x-x--x-x-x|
G|x---x--x---x--x--x---x---x--x---x--x--x---x--x-x--x-x-x--x--x-x--x-x-x|
D|x---x--x---x--x--x---x---x--x---x--x--x---x--x-x--x-x-x--x--x-x--x-x-x|
A|10--10-10--10-10-10--12--12-12--12-12-12--5--5-5--5-5-5--5--5-5--5-5-5|
E|10--10-10--10-10-10--12--12-12--12-12-12--5--5-5--5-5-5--5--5-5--5-5-5|

(Continued)
e|x---x--x---x--x--x---x---x--x---x--x--x---x---x--x---x--x--x---x---x--x---x--x--x-|
B|x---x--x---x--x--x---x---x--x---x--x--x---x---x--x---x--x--x---x---x--x---x--x--x-|
G|x---x--x---x--x--x---x---x--x---x--x--x---x---x--x---x--x--x---x---x--x---x--x--x-|
D|x---x--x---x--x--x---x---x--x---x--x--x---x---x--x---x--x--x---x---x--x---x--x--x-|
A|10--10-10--10-10-10--12--12-12--12-12-12--14--14-14--14-14-14--16--16-16--16-16-16|
E|10--10-10--10-10-10--12--12-12--12-12-12--14--14-14--14-14-14--16--16-16--16-16-16|

Outro:
e|x--------x-/|
B|x--------x-/|
G|x--------x-/|
D|x--------x-/|
A|18-------18/|
E|18-------18/|

Song Order
----------
1.Intro x2
2.Breakdown
3.Verse
4.Verse 2
5.Verse
6.Verse 3
7.Chorus x2
8.Chorus 2
9.Verse
10.Verse 2
11.Verse
12.Verse 3
13.Chorus x2
14.Chorus 2
15.Verse
16.Verse 2
17.Verse
18.Verse 3
19.Chorus x2 (Played 2 frets higher)
20.Chorus 2 (Played 2 frets higher)


Important: The song above is NOT stored on the Chordie server. The original song is hosted at www.guitaretab.com. Chordie works as a search engine and provides on-the-fly formatting. Chordie does not index songs against artists'/composers' will. To remove this song please click here.

This song is displayed as text-only. Transposing and tuning is only available for chordpro-songs.

Login - add to songbook

Rating click stars to rate

Layout
Accuracy

SHARE PAGE  




You need to log in to post comments