Guitar Tabs, Chords and Lyrics


Hold Me Now   Misc. Unsigned Bands



e|-----------------------------------------------------|
B|-----------------------------------------------------|
G|-----------------------14-14-------------------14-14-|
D|-----12-12-14-14-12-12-------12-12-14-14-12-12-------|
A|-----------------------------------------------------|
E|-----------------------------------------------------|

e|----------------------------------------------|
B|----------------------------------------------|
G|--------------------14-14---------------------|
D|--11-11-12-12-11-11-------9-9-9-9-9h11p9-7----|
A|----------------------------------------------|
E|----------------------------------------------|


It's a pretty easy riff, and it's played a couple of times
throughout the song. I'm not sure whether they actually 
hit the notes that many times, or if it's echo, but that's 


Important: The song above is NOT stored on the Chordie server. The original song is hosted at www.guitaretab.com. Chordie works as a search engine and provides on-the-fly formatting. Chordie does not index songs against artists'/composers' will. To remove this song please click here.

This song is displayed as text-only. Transposing and tuning is only available for chordpro-songs.

Login - add to songbook

Rating click stars to rate

Layout
Accuracy

SHARE PAGE  




You need to log in to post comments