Guitar Tabs, Chords and Lyrics


Bitter   Misc. Unsigned Bands



Band: Mercy Fades
Song: Bitter
website: www.myspace.com/mercyfades
this is the basic guitar thingy for mercy fades' bitter
learn it love it and stuff
devin


 D |--2p0-0---3-    ---------------|
 A |--3---3---3-    -3-------------|
 F |--2---2---0- X3 -0-------------|
 C |--0---0---0-    -0-------------| ACOUSTIC CHORDS FIRST 1/2 OF
 G |--0---0---3-    -5---5-3---3-5-| FIRST VERSE AND ALL OF 2ND
 C |--0---0---3-    -5---5-3---3-5-| ACOUSTIC VERSE

 D -------------|
 A ---3---5-5/6-|
 F ---2---3-----|
 C ---0---3-----| SECOND HALF OF FIRST ACOUSTIC VERSE
 G ---0---3-----|
 C ---0---3-----|

 D -----------------------------------|
 A -----------------------------------|
 F -----------------------------------|  Distortion
 C -----------------------------------| "WE ONLY PRAY WHEN
 G ---5---5-3---3-5---5-3---3-6-6-5---| SOMETHINGS WRONG"
 C ---5---5-3---3-5---5-3---3-6-6-5---|

 D ------------------------------------------------------|
 A ------------------------------------------------------|
 F ------------------------------------------------------|
 C -----------------3--------------------------3-555--2--| X2
 G -----------3-5-----5^6-5--------------3-5----------3--|
 C ---000-000-----0--------------000-000-----0-----------|

 D ---------------------------------------------------|
 A ---------------------------------------------------|
 F ---------------------------------------------------|
 C --------------------33-55-33--------------3-5-3-0--|
 G --------3-5-5-5-3-3-33-33-33--------3-555----------|
 C ---0-00---5-5-5-3-3-33-33-33---0000-3-555----------|

 D ----------------------------------------------------|
 A ----------------------------------------------------|
 F ----------------------------------------------------|
 C ------------------------------------6-5-3-0-3-5-3-0-|
 G --------5-333-3-5-6-5---------3-555-----------------|
 C ---0000-5-333------------0000-3-555-----------------|

 D -----------------------------------------------|
 A -----------------------------------------------|
 F -----------------------------------------------|
 C -----------------------------------------------|
 G --------5-333-3333333---------3-555------------|
 C ---0000-5-333-3333333----0000-3-555------------|

 D -------------------------------------------------------|
 A -------------------------------------------------------|
 F -------------------------------------------------------|
 C -------------------------------------------------------|
 G --------5-333-3333333-----------555--------------------|slide down from
 C ---0000-5-333-3333333----0000-3-555--/12th fret to 1st-|

 D ----------------------------------------|
 A ----------------------------------------|
 F ----------------------------------------|
 C ---5/7\5------------------5/7\5---------|
 G ---3/5\3-6P5P0-3-33-6-5---3/5\3-6-5-3-0-|
 C ---------6P5P0-3-33-6-5---------6-5-3-0-|

 D ----------------------------|
 A ----------------------------|
 F ----------------------------|
 C ----------------------------| X4 UNTIL BASS BREAK
 G ---3P0-00-3P0-0-3P0-000-6-5-|        THEN
 C ---3P0-00-3P0-0-3P0-000-6-5-| X4 UNTIL RIFF CHANGE

 D ------------------------------------------------|
 A ------------------------------------------------|
 F ------------------------------------------------|
 C ------------------------------------------------|
 G ---0----6-5-0----6-5--3P0-00-3P0-0-3P0-000-6-5--|
 C ---0----6-5-0----6-5--3P0-00-3P0-0-3P0-000-6-5--|

 D ----------------------------|
 A ----------------------------|
 F ----------------------------|
 C ----------------------------| 4 MORE TIMES THEN
 G ---3P0-00-3P0-0-3P0-000-6-5-|
 C ---3P0-00-3P0-0-3P0-000-6-5-|

 D --------------------------|
 A --------------------------|
 F --------------------------|
 C --------------------------| PALM MUTED, DOWNPICKED, ANGRYNESS
 G --------------------------|
 C ---3-000-3-00-3-00000-6-5-|

 D -----------|
 A -----------|
 F -----------|
 C -----------| LAST 4 NOTES BEFORE MIKE SCREAMS "DREAM"
 G ---3-5-3-0-|


Important: The song above is NOT stored on the Chordie server. The original song is hosted at www.guitaretab.com. Chordie works as a search engine and provides on-the-fly formatting. Chordie does not index songs against artists'/composers' will. To remove this song please click here.

This song is displayed as text-only. Transposing and tuning is only available for chordpro-songs.

Login - add to songbook

Rating click stars to rate

Layout
Accuracy

SHARE PAGE  




You need to log in to post comments