Guitar Tabs, Chords and Lyrics


Too Close For Words  Misc. Unsigned Bands

      [C]         [G]       [Fmaj7]               
e  |--3--|  |--3--|  |--3--|
B  |--1--|  |--0--|  |--1--|
G  |--2--|  |--0--|  |--2--|
D  |--0--|  |--0--|  |--3--|
A  |--3--|  |--2--|  |--x--|
E  |--x--|  |--3--|  |--x--|


Chord Pattern: C G Fmaj7 G

The chords are played like:
Down-
Up-Mute-
Down
Playalong

Intro:
E---------------3-|----------x-x-1-3|---------------3-|----------x-x-1-3--|
B-----------0-1-0-|----------x-x-1-3|-----------0-1-0-|----------x-x-1-3--|
G---------0-----0-|-0--0-0-0-x-x-2-4|---------0-----0-|-2--2-2-2-x-x-2-4--|
D-------2-------0-|-2--2-2-2-x-x-3-5|-------2-------0-|-0--0-0-0-x-x-3-5--|
A-0-2-3-----------|-3--3-3-3-x-x-3-5|-0-2-3-----------|-3--3-3-3-x-x-3-5--|
E-----------------|-3--3-3-3-x-x-1-3|-----------------|-3--3-3-3-x-x-1-3--|
|-1-3---------------------------------------------------------------------|
|-1-3---------------------------------------------------------------------|
|-2-4---------------------------------------------------------------------|
|-3-5---------------------------------------------------------------------|
|-3-5---------------------------------------------------------------------|
|-1-3---------------------------------------------------------------------|

Verse 1:
..So many tim[C]es i need you, like the moon needs its sun to shine,
..But Somet[G]imes I [Fmaj7]feel dizzes in my m[G]ind.
[C]..Know that there's no[G] need for me [Fmaj7]to say that I[G]'m sorry.
[C]..Actually n[G]ormal, but some[Fmaj7]times, sometimes I w[G]orryyyyy...


Chorus:

[C]..Come on cl[G]ose to me, too..[Fmaj7].     too close for w[G]ords.
[C]..Come on cl[G]ose to meeee..[Fmaj7].     too close for [G]words.

Verse 2:

[C]..You know the m[G]essenger, he..[Fmaj7].     he has to r[G]ush.
[C]..You didn't r[G]ealize, 'cuz..[Fmaj7].     there was another r[G]eason:
[C]                              [G]      [Fmaj7]                           [G]                              
..She has to ---------------------...     when you touched his lonely legs

[C]                      [G]     [Fmaj7]                   [G]                                               
..She -------------------...     to a little kick.


(I'm not sure about the text phrases marked with "---". Listen to the song, maybe you
understand it or be able to create your own version :P)


Bridge:

[C]Mmmmmh.. [G]Mmmmmh.. [Fmaj7]Mmmmmh.. [G]Mmmmmh..

Chorus:

[C]..Come on cl[G]ose to me, too..[Fmaj7].     too close for w[G]ords.
[C]..Come on cl[G]ose to meeee..[Fmaj7].     too close for [G]words.

[C]..Come on cl[G]ose to me, too..[Fmaj7].     too close for w[G]ords.
[C]..Come on cl[G]ose to meeee..[Fmaj7].     too close for [G]words.

Important: The song above is NOT stored on the Chordie server. The original song is hosted at www.guitaretab.com. Chordie works as a search engine and provides on-the-fly formatting. Chordie does not index songs against artists'/composers' will. To remove this song please click here.

Text color:
Chord color:
Chord grids: 
Font size:    
Page size: 

C Fmaj7 G
variations - click chord images

Login - add to songbook

Transpose chords

Tuning

Rating click stars to rate

Layout
Accuracy

SHARE PAGE  




You need to log in to post comments