Guitar Tabs, Chords and Lyrics


Catching Waves   Misc. Unsigned Bands



e---0-----4----5-----7------12-----0---------|
B--------------------------------------------|
G--------------------------------------------|
D--------------------------------------------|
A--------------------------------------------|
E---0-----4----5-----7------12-----0---------|

e-------------------------7p5p4p0--12--12----|
B--------------------------------------------|
G--------------------------------------------|
D--------------------------------------------|
A--------------------------------------------|
E---7p5p4p0--12--12--------------------------|

   E
e--0------------------------------------------|
B--0------------------------------------------|
G--1------------------------------------------|
D--2------------------------------------------|
A--2------------------------------------------|


Important: The song above is NOT stored on the Chordie server. The original song is hosted at www.guitaretab.com. Chordie works as a search engine and provides on-the-fly formatting. Chordie does not index songs against artists'/composers' will. To remove this song please click here.

This song is displayed as text-only. Transposing and tuning is only available for chordpro-songs.

Login - add to songbook

Rating click stars to rate

Layout
Accuracy

SHARE PAGE  




You need to log in to post comments