Guitar Tabs, Chords and Lyrics


Sunny Hours   Misc. Unsigned Bands



e--------------------5--5---5---7-------------|
B---------------------------------------------|
G----------------------------------------4----|
D--------------------------------------5------|
A--------4-----7------------------------------|
E------5----5-----------5---5---7-------------|


e----------------------------------12-15--0---|
B------------------------14---14----------2---|
G---5-----4------7---4--------------------2---|
D-5----5------5------5--------------------2---|
A-----------------------------------------4---|


Important: The song above is NOT stored on the Chordie server. The original song is hosted at www.guitaretab.com. Chordie works as a search engine and provides on-the-fly formatting. Chordie does not index songs against artists'/composers' will. To remove this song please click here.

This song is displayed as text-only. Transposing and tuning is only available for chordpro-songs.

Login - add to songbook

Rating click stars to rate

Layout
Accuracy

SHARE PAGE  




You need to log in to post comments