Guitar Tabs, Chords and Lyrics


Milly   Misc. Unsigned Bands



This song is done with an acoustic guitar.

Intro:
|----------------------------------------------|
|--------0-------------0-------------0---------|
|------0---0---0-----0---0---0-----0---0---0---|
|----4-------4-----4-------4-----4-------4-----|
|------------------------------3---------------|
|--0-------------0-----------------------------|
                                                 2X (both bars)
|----------------------------------------------|
|--------0-------------0-------------0---------|
|------0---0---0-----0---0---0-----0---0---0---|
|----4-------4-----4-------4-----4-------4-----|
|--5-------------0--------------3--------------|
|----------------------------------------------|

|-------------------------------------------------|
|--------0-------------0-------------0--------0---|
|------0---0---0-----0---0---0-----0---0---0--0---| (ring out)
|----4-------4-----4-------4-----4-------4----4---|
|--5-------------7-------------7--------------7---|
|-------------------------------------------------|


Verse:
|-----------------------------------------------------------|
|--------0-------------0-------------0-------------0--------|
|------0---0---0-----0---0---0-----0---0---0-----0---0---0--| 4X
|----4-------4-----4-------4-----4-------4-----4-------4----|
|----------------3---------------------------5--------------|
|--0---------------------------3----------------------------|
     Smile brighter...          She's not...


Pre-Chorus:
|-----------------------------------------------------------|
|--------0-------------0-------------0-------------0--------|
|------0---0---0-----0---0---0-----0---0---0-----0---0---0--| 2X
|----5-------5-----5-------5-----5-------5-----5-------5----|
|--3---------------------------5-------------3--------------|
|----------------3------------------------------------------|
     There's no one...


Chorus:
|--0--0-0-0--0---0--0-0-0--0---3--3-3-3--3---2--2-----------------|
|--0--0-0-0--0---1--1-1-1--1---3--3-3-3--3---3--3--(let it ring)--|
|--0--0-0-0--0---0--0-0-0--0---0--0-0-0--0---2--2-----------------|
|--2--2-2-2--2---2--2-2-2--2---0--0-0-0--0---0--0-----------------|
|--2--2-2-2--2---3--3-3-3--3---X--X-X-X--X------------------------|
|--0--0-0-0--0-----------------3--3-3-3--3------------------------|
    Hands unfold...


Verse:
|-----------------------------------------------------------|
|--------0-------------0-------------0-------------0--------|
|------0---0---0-----0---0---0-----0---0---0-----0---0---0--| 4X
|----4-------4-----4-------4-----4-------4-----4-------4----|
|----------------3---------------------------5--------------|
|--0---------------------------3----------------------------|
     She is the...               Burning in the...


Bridge:
|-----------------------------|
|-----------------------------|
|-----------------------------| 2X
|----------5---------------7--|
|--2-------3-------5-------5--|
|--0---------------3----------|
    I wrote...


Pre-Chorus:
|-----------------------------------------------------------|
|--------0-------------0-------------0-------------0--------|
|------0---0---0-----0---0---0-----0---0---0-----0---0---0--| 4X
|----5-------5-----5-------5-----5-------5-----5-------5----|
|--3---------------------------5-------------3--------------|
|----------------3------------------------------------------|
     She's so fine...


Chorus:
|--0--0-0-0--0---0--0-0-0--0---3--3-3-3--3---2--2-----------------|
|--0--0-0-0--0---1--1-1-1--1---3--3-3-3--3---3--3--(let it ring)--|
|--0--0-0-0--0---0--0-0-0--0---0--0-0-0--0---2--2-----------------| 2X
|--2--2-2-2--2---2--2-2-2--2---0--0-0-0--0---0--0-----------------|
|--2--2-2-2--2---3--3-3-3--3---X--X-X-X--X------------------------|
|--0--0-0-0--0-----------------3--3-3-3--3------------------------|
    Hands unfold...


Important: The song above is NOT stored on the Chordie server. The original song is hosted at www.guitaretab.com. Chordie works as a search engine and provides on-the-fly formatting. Chordie does not index songs against artists'/composers' will. To remove this song please click here.

This song is displayed as text-only. Transposing and tuning is only available for chordpro-songs.

Login - add to songbook

Rating click stars to rate

Layout
Accuracy

SHARE PAGE  




You need to log in to post comments