Guitar Tabs, Chords and Lyrics


Daisy Chain   Misc. Unsigned Bands



-------------------------------------------------------------------------------
Daisy Chain - The F.U.'s
Kill For Christ
-------------------------------------------------------------------------------
Tabbed by: axeslash
Email: holmzito@yahoo.com

Tuning: Standard

e|--------------------|  e|------------------------------------------------------|
B|--------------------|  B|------------------------------------------------------|
G|---7----------------|  G|---------------------------9--9--9--10--10--10--9--7--|
D|-7-7----------------|  D|-9--9--9--10--10--10-9--9--9--9--9--10--10--10--9--7--|
A|-7-5----------------|  A|-9--9--9--10--10--10-9--9--7--7--7---8---8---8--7--5--|
E|-5------------------|  E|-7--7--7---8---8---8-7--7-----------------------------| x10

e|----------------------------------------------------------|
B|----------------------------------------------------------|
G|-7----7----6----6----5----5----3----3----4----------------|
D|-7----7----6----6----5----5----3----3----4----------------|
A|-5----5----4----4----3----3----1----1----2----------------|
E|----------------------------------------------------------|

e|------------------------|     e|-------------------------------|
B|------------------------|     B|-------------------------------|
G|-9--10--7-7-7-7-7-7-7-7-|     G|---------9-----7-7-7-7-5-5-5-5-|
D|-9--10--7-7-7-7-7-7-7-7-|     D|-7-7-9-9-9--9--7-7-7-7-5-5-5-5-|
A|-7---9--5-5-5-5-5-5-5-5-|     A|-7-7-9-9-7--9--5-5-5-5-3-3-3-3-|
E|------------------------| x4  E|-5-5-7-7----7------------------| x4

e|---------------------------------|  e|------------------------|
B|---------------------------------|  B|------------------------|
G|-----------------7-7-7-7-8-8-8-8-|  G|-9--10--7-7-7-7-7-7-7-7-|
D|-7-7-7-7-9-9-9-9-7-7-7-7-8-8-8-8-|  D|-9--10--7-7-7-7-7-7-7-7-|
A|-7-7-7-7-9-9-9-9-5-5-5-5-6-6-6-6-|  A|-7---9--5-5-5-5-5-5-5-5-|
E|-5-5-5-5-7-7-7-7-----------------|  E|------------------------| x4

e|-------------------------------|     e|---------------------------------|
B|-------------------------------|     B|---------------------------------|
G|---------9-----7-7-7-7-5-5-5-5-|     G|-----------------7-7-7-7-8-8-8-8-|
D|-7-7-9-9-9--9--7-7-7-7-5-5-5-5-|     D|-7-7-7-7-9-9-9-9-7-7-7-7-8-8-8-8-|
A|-7-7-9-9-7--9--5-5-5-5-3-3-3-3-|     A|-7-7-7-7-9-9-9-9-5-5-5-5-6-6-6-6-|
E|-5-5-7-7----7------------------| x4  E|-5-5-5-5-7-7-7-7-----------------|

e|------------------------|     e|------------------|
B|------------------------|     B|------------------|
G|-9--10--7-7-7-7-7-7-7-7-|     G|-9----------------|
D|-9--10--7-7-7-7-7-7-7-7-|     D|-9----------------|
A|-7---9--5-5-5-5-5-5-5-5-|     A|-7----------------|
E|------------------------| x4  E|------------------|

e|------------------------------------------------------|
B|------------------------------------------------------|
G|---------------------------9--9--9--10--10--10--9--7--|
D|-9--9--9--10--10--10-9--9--9--9--9--10--10--10--9--7--|
A|-9--9--9--10--10--10-9--9--7--7--7---8---8---8--7--5--|
E|-7--7--7---8---8---8-7--7-----------------------------| x6

e|------------------|  e|------------------------|
B|------------------|  B|------------------------|
G|-9----------------|  G|-9--10--7-7-7-7-7-7-7-7-|
D|-9----------------|  D|-9--10--7-7-7-7-7-7-7-7-|
A|-7----------------|  A|-7---9--5-5-5-5-5-5-5-5-|
E|------------------|  E|------------------------| x4


| /  slide up
| \  slide down
| h  hammer-on
| p  pull-off
| ~  vibrato
| +  harmonic
| x  Mute note


Important: The song above is NOT stored on the Chordie server. The original song is hosted at www.guitaretab.com. Chordie works as a search engine and provides on-the-fly formatting. Chordie does not index songs against artists'/composers' will. To remove this song please click here.

This song is displayed as text-only. Transposing and tuning is only available for chordpro-songs.

Login - add to songbook

Rating click stars to rate

Layout
Accuracy

SHARE PAGE  




You need to log in to post comments