Guitar Tabs, Chords and Lyrics


Mirror   Misc. Unsigned Bands



Conventions:
pm.= Palm Muting
() = Let Ring
/  = Slide



Verse
e|---------------------|
B|---------------------|
G|---------------------|
D|-3-3-3-3-5-5-5-5-7---|
A|-3-3-3-3-5-5-5-5-7---|
E|-1-1-1-1-3-3-3-3-5---| 2x
pm . . . . . . . . .
e|-------------------|
B|-------------------|
G|-------------------|
D|-7---7---7-7-7-----|
A|-7---7---7-7-7-----|
E|-5---5---5-5-5-----| 
pm .   .   . . . 
Repeat all 2 times

Pre-Chorus
e|--------------------------------------------|
B|--------------------------------------------|
G|-9-9-9-9-8-8-8-10-10-9-9-9-9-10-10-10-8-8---|
D|-x-x-x-x-x-x-x-x--x--x-x-x-x-x--x--x--x-x---|
A|-7-7-7-7-6-6-6-8--8--7-7-7-7-8--8--8--6-6---|
E|--------------------------------------------| 2x

Chorus
e|--------------------------------------------|
B|--------------------------------------------|
G|-9-9-9-8-6-6-6-6-6-6-8-8-8-8-10-10-10-6-6---|
D|-x-x-x-x-x-x-x-x-x-x-x-x-x-x-x--x--x--x-x---|
A|-7-7-7-6-4-4-4-4-4-4-6-6-6-8-8--8--9--4-4---|
E|--------------------------------------------| 4x

Bridge
e|-----------------------|
B|-----------------------|
G|-----------------------|
D|-5-5-5---5---7-5-5--3-5|
A|-5-5-5---5---7-5-5--3-5|
E|-3-3-3---3---5-3-3--1-3| 

Verse 2x

Pre-Chorus 2x

Interlude
e|-----------------------------------------|
B|-----------------------------------------|
G|-----------------------------------------|
D|-/12-12-12-12-14-14-14-14-15-15-15-10-10-|
A|-----------------------------------------|
E|-----------------------------------------| 4x

Then
e|--------------------------|
B|--------------------------|
G|--------------------------|
D|-(3)-------/-3------------|
A|-(3)-------/-3------------|
E|-(5)-------/-1------------| 

Chorus 4x

Bridge 2x

Enjoy great song ;)


Important: The song above is NOT stored on the Chordie server. The original song is hosted at www.guitaretab.com. Chordie works as a search engine and provides on-the-fly formatting. Chordie does not index songs against artists'/composers' will. To remove this song please click here.

This song is displayed as text-only. Transposing and tuning is only available for chordpro-songs.

Login - add to songbook

Rating click stars to rate

Layout
Accuracy

SHARE PAGE  




You need to log in to post comments