Guitar Tabs, Chords and Lyrics


18 Problems   Misc. Unsigned Bands



Hey.Im new to the artist world.I am 16 years old and i wrote this.Enjoy the tab.Thanks 
have a good day.

e|777-99910-999-777s3----------------------|
b|777-99910-999-777s3----------------------|
g|777-99910-999-777s3----------------------|
d|----------------------3333-666-999-666---|
a|----------------------3333-666-999-666---|
e|----------------------3333-666-999-666---|
                       |________________|
                       Repeat during vocals
Verse 1:
You say that the kid with the curly hair
Is the one you want...
the one you need.
So baby i just wanna know...

Chorus:
Why cant it be me?
Why cant i be the one you want
Why cant i be the one you need
Maybes its just one of my 18 problems
The girl i desire is just on fire...
And shes locked and loaded with 100 bullets on the kid with the curly hair

Verse 2:
I see you trying to make me help
With getting that kid to ask you out
But i decline and say...

(Chorus)

Guitar solo:
e|-----------------------------------------------------13-------15-17-16-15--|b
b|---------------------18fb--------------------------14--12------------------|
g|----------------17-19----------------------------12------13----------------|
d|-----------17-19--------------------------13-------------------------------|
a|-----17-19------------------------------14--12-----------------------------|


Important: The song above is NOT stored on the Chordie server. The original song is hosted at www.guitaretab.com. Chordie works as a search engine and provides on-the-fly formatting. Chordie does not index songs against artists/composers will. To remove this song please click here.

This song is displayed as text-only. Transposing and tuning is only available for chordpro-songs.

Login - add to songbook

Rating click stars to rate

Layout
Accuracy

SHARE PAGE  




You need to log in to post comments