Guitar Tabs, Chords and Lyrics


Trapped In The Fog   Misc. Unsigned Bands



Distortion guitars-doubled throughout (Fill-Guitar 1 only)
                             
 Intro                                             
|-----------------|-------------|-----------|--------------|
|--*--------------|-------------|-----------|-----------*--|
|--*--------------|-------------|-----------|-----------*--|
|-----------------|-------------|-----------|--------------|
|--11----9h11-9---|--9—---7h9-7-|--7—---5h7-|-7-7b-7-7p5---|
|--9—-9h11--------|--7-7h9------|--5-5h7----|------------7-|


Verses                   
                     P.M                P.M 
|------------------------|------------------|-----------------|
|--*---------------------|---------------*--|-----------------|
|--*---------------------|---------------*--|-----------------|
|------------------------|------------------|-----------------|
|--/11—-11—-11-11-11-----|--9—-9—-9-9-9-----|---11---9-9---7--|
|--/9---9---9—-9—-9—-000-|--7—-7—-7-7-7-000-|---9----7-7---5--|

                   Fill
                  
|-----------------|-----------------------|
|-----------------|-----------------------|
|-----------------|-----------------------|
|--------------9--|-----------------------|
|---11---9-9---7--|--------9-11-11-9------|
|---9----7-7------|----9-11----------11-9-|


Chorus
      P.M-|     P.M-|     P.M-|     P.M-|
|----------------------------------------------|
|----------------------------------------------|
|----------------------------------------------|
|----------------------------------------------|
|--11—11-11-11—-11-11-11—-11-11-11—-11-11-11---|
|--9---9--9--9—--9--9--9—--9--9--9—--9—-9--9-0-|

      P.M-|     P.M-|     P.M-|     P.M-|
|----------------------------------------------|
|----------------------------------------------|
|----------------------------------------------|
|----------------------------------------------|
|--9---9--9--9---9--9--9---9--9--9---9--9--9---|
|--7---7--7--7---7--7--7---7--7--7---7--7--7-0-|


Important: The song above is NOT stored on the Chordie server. The original song is hosted at www.guitaretab.com. Chordie works as a search engine and provides on-the-fly formatting. Chordie does not index songs against artists'/composers' will. To remove this song please click here.

This song is displayed as text-only. Transposing and tuning is only available for chordpro-songs.

Login - add to songbook

Rating click stars to rate

Layout
Accuracy

SHARE PAGE  




You need to log in to post comments