Guitar Tabs, Chords and Lyrics


Supernova   Misc. Unsigned Bands



Hello there this is my first ever song that I have written its not great.
Any Feedback is welcome

                           Keep t picking the open E string troughout
E|-------------------------|-------------------------|
B|-------------------------|-------------------------|
G|-------------------------|-------------------------|
D|-------------------------|-------------------------|
A|-------------------------|-------------------------|
E|22t\\\\\\\\\\\\3---------|0t-3-0-2-0-1-0-4---------|

E|-------------------------|-------------------------|
B|-------------------------|-------------------------|
G|-------------------------|-------------------------|
D|-------------------------|-------------8\--2h3p2-xx|
A|---------------------2-22|-2222222222--8\--2h3p2-xx|
E|3t-4t-1t-2t-0t-4t-2t-2-22|-2222222222--8\----------|

E|-------------------------|-------------------------|
B|-------------------------|0-------0-------0--------|
G|-------------------------|-0-----0-0-----0-0-------|
D|2h3p2-x-xxx--------------|--2---2---2---2---22s----|
A|2h3p2-x-xxx--------------|---2-2-----2-2-----2s----|
E|(Repeat 4 times)---------|----0-------0------------|

E|-------------------------|-------------------------|
B|-------------------------|-------------------------|
G|-------------------------|-------------------------|
D|2-x-2-x-2-x-2/3----------|2-5hm-2-5hm-2-5hm-2/5----|              
A|2-x-2-x-2-x-2/3----------|2-5hm-2-5hm-2-5hm-2/5----|
E|-------------------------|-------------------------|

E|-------------------------|-------------------------|
B|5h7p5h7p5h8p5h7p5h7p5h9--|7th11p7h10p7h9p7h8p7-----|
G|----(Repeat 3 times)-----|(Repeat 5 times)---------|
D|-------------------------|-------------------------|
A|-------------------------|-------------------------|
E|-------------------------|-------------------------|

E|5------------------------|-------------------------|
B|6---6---5---7p5----------|-------------------------|
G|7---7---6--5---7-5-------|-------------------------|
D|8-8-8-7-7-7-------7------|5tp2p1h2-6tp2p1h2--------|
A|-----------------------2s|-------------------------|
E|----------------------02s|-------------------------|

E|-------------------------|-----------------------^-|
B|-------------------------|------------------11h12^-|
G|-------------------------|-------------------------|
D|7tp2p1h2-8tp2p1h2--------|9tp2p1h2-----------------|
A|-------------------------|(Repeat 3 times)---------|
E|-------------------------|-------------------------|

E|-------------------------|-------------------------|
B|-------------------------|-------------------------|
G|666-999-444-6-6-6s-------|\\\\\\\\\0---------------|
D|444-777-222-4-4-4s-------|\\\\\\\\\0---------------|
A|555-888-333-5-5-5s-------|\\\\\\\\\0---------------|
E|-------------------------|-------------------------|

Tab Legend                       
t=Tremolo Picking              tp=Tap Note
\=Slide Down                   ^=Bend Up
/=Slide Up                     x=Mute Note
h=Hammer On                    
p=Pull Off
s-Sustain
Hm=Natural Harmonics


Important: The song above is NOT stored on the Chordie server. The original song is hosted at www.guitaretab.com. Chordie works as a search engine and provides on-the-fly formatting. Chordie does not index songs against artists'/composers' will. To remove this song please click here.

This song is displayed as text-only. Transposing and tuning is only available for chordpro-songs.

Login - add to songbook

Rating click stars to rate

Layout
Accuracy

SHARE PAGE  




You need to log in to post comments