Guitar Tabs, Chords and Lyrics


Rcnk  Misc. Unsigned Bands

E|-10---------10----------10-------10--------|


B|----12----12---12----12----12--12---12-----|


G|-------11--------11----------12-------12---|

D|-------------------------------------------|
A|-------------------------------------------|
D|-------------------------------------------|
E|-9--------9----------7------7-------|
B|---10--10---10---10---8---8---8--8--|
G|------9--------9--------7-------7---|
D|------------------------------------|
A|------------------------------------|
D|------------------------------------|
   [B5]   [A5]   [G5]   [F#5]    [E5]   [D5]                                                                             
E|--------------------|
B|--------------------|
G|--------------------|
D|-9--7--5--4---2--0--|
A|-9--7--5--4---2--0--|
D|-9--7--5--4---2--0--|

Remix section (0:30)
E|-------------------------------------|
B|-------------------------------------|
G|-------------------------------------|
D|-------------------------------------|
A|-2-2-2-2-5-------5-4-4-4-4-7---------|
D|----------5-5-5-5------------4-4-4-4-|


Note: These chords are for the original version,
but they do fit with the remix.

[B5]I fall down in the [G5]street
[A5]I need somebody to help me to my [F#5]feet
[B5]The dreams I'm having make me scared of the [G5]heat
[A5]But thanks to you I know it time I could[F#5] be

[B5]Anything you told me th[G5]at from day one
Said I could [A5]be the president so what the [F#5]heck I'll go be one
You [B5]taught me to use manners and showed me [G5]the family tree
And now [A5]everyday I thank God for my [F#5]family
I don't know [B5]where I'd be
It's so [G5]astonishing
Thank you D[A5]ad for working so hard so that I [F#5]could be
Any[B5]thing that I wanted to be and [G5]thank you Kimberly
[A5]For saying every single prayer that you said for me
[B5]So I just [D5]sit back and relax[E5]   [F#5]knowing that [G5]God has [A5]plan for me
[B5]And thank you family, [D5]thank you family
[E5]For spor[F#5]ting me in [G5]ever[A5]ything
[B5]I just don..t know where I..d [D5]be
Without your [E5]love[F#5], with out[G5] you m[A5]ommy
And I [B5]know that may sound [D5]incredibly cheesy but who cares[E5]
[F#5]This is for my[G5] family[A5]
I remember Mom when you took me to school
You drove the Jeep because I though it was cool
It was my first day of high school
And if it wasn't for you I'd swear I would look like a fool
You see that..s just the thing you would do anything
It doesn't matter about the pain you would do it for me
And now I'm older and my eyes are open wider you see
I swear to God ill never forget my family
And don't think I forgot about you, my Kimberly
I love you so much I cry just trying to sing
And I'd do anything to be as great a my Dad
Everybody come meet the best guy I..m sure glade I already have.

chorus x2

Important: The song above is NOT stored on the Chordie server. The original song is hosted at www.guitaretab.com. Chordie works as a search engine and provides on-the-fly formatting. Chordie does not index songs against artists'/composers' will. To remove this song please click here.

Text color:
Chord color:
Chord grids: 
Font size:    
Page size: 

A5 B5 D5 E5 F#5 G5
variations - click chord images

Login - add to songbook

Transpose chords

Tuning

Rating click stars to rate

Layout
Accuracy

SHARE PAGE  




You need to log in to post comments