Guitar Tabs, Chords and Lyrics


This Is Fear   Misc. Unsigned Bands



This song is also a half step down, but the 6th string is tuned down to a drop Db.

Intro(2x):
-----------------------------------------------------------------|
-9-10s12--8-9-10-10-5-7s9-9-4-5s7-7-0-2s5-0-2-2--2-0-2s5-0-2-2---|
-0--0--0--0-0--0--0-0-0-0-0-0-0-0-0-0-0-0-0-0-0--0-0-0-0-0-0-0---|
-----------------------------------------------------------------|
-----------------------------------------------------------------|
-----------------------------------------------------------------|

Verse:
--------       -------      --------------------------------|
--------       -------      --------------------------------|
--------       -------      -----7------------7-------------|
---3---- HOLD  ---5--- HOLD -0-0-7-6-5-3--0-0-7-6-5-3-------|
---3----       ---5---      -0-0-5-6-5-3--0-0-5-6-5-3-------|
---3----       ---5---      -0-0---6-5-3--0-0---6-5-3-------|

Pre-Chorus:
------------------------------------------|
------------------------------------------|
------------------------------------------|
-66-6-66-6-66-6-66-6-66-6-66-6-66-6-66----|
-66-6-66-6-66-6-66-6-66-6-66-6-66-6-66----|
-66-6-66-6-66-6-66-6-66-6-66-6-66-6-66----|

----------------------------------------|
----------------------------------------|
----------------------------------------|
-5-55-0-5-50-3-33-0-3----3-5-6----------|
-5-55-0-5-50-3-33-0-3----3-5-6-3h5-3p0--|
-5-55p0-5-50-3-33p0-3----3-5-6----------|

Chorus(4x):
----------------------------------------------------------------------|
----------------------------------------------------------------------|
---------10-10------------------------10-10---------------------------|
-12-10-12------10-10-10-x-8---12-10-12------10-10-1010-131313131313---|
-12-10-12-8-8--10-10-10-x-8---12-10-12-8-8--10-10-1010-131313131313---|
-12-10-12------10-10-10-x-8---12-10-12------10-10-1010s131313131313---|

After the forth time after the chorus is the following:
----------------------|
----------------------|
----------------------|
----------------------|
-5-3h5----------------|
-------3-5-6----------|

Reapet verse,pre-chorus, and chorus and play the following after the chorus:
(wah Pedal)
--------------------------------------------------------------|
--------------------------------------------------------------|
-10~--9~----7~--7p5--------------------7~-7p5-----------------|
--------------------7p5s3h55^6^5-3------------7p5s3h55^6~-----|
-8~---7~---------------------------5~-------------------------|
--------------------------------------------------------------|

--------------------------------------------------------------|
--------------------------------------------------------------|
-7~--7p5--------------------7~-7p5----------------------------|
---------7p5s3h55^6^5-3------------7p5s3h55^6~-3--------------|
------------------------5~-----------------------5------------|
--------------------------------------------------------------|

This is played behind the solo:

--------------------------------|
--------------------------------|
-----7------------7-------------|
-0-0-7-6-5-3--0-0-7-6-5-3-------|
-0-0-5-6-5-3--0-0-5-6-5-3-------|
-0-0---6-5-3--0-0---6-5-3-------|



Important: The song above is NOT stored on the Chordie server. The original song is hosted at www.guitaretab.com. Chordie works as a search engine and provides on-the-fly formatting. Chordie does not index songs against artists'/composers' will. To remove this song please click here.

This song is displayed as text-only. Transposing and tuning is only available for chordpro-songs.

Login - add to songbook

Rating click stars to rate

Layout
Accuracy

SHARE PAGE  




You need to log in to post comments