Guitar Tabs, Chords and Lyrics


Infected   Misc. Unsigned Bands



Intro/Verse

eb|----------0----------------------------------0-------------|
bb|----------------------------0------------------------------|
Gb|-------0--------0---------0-------0--------0--------0------|
Db|-----4--------4---4-----4-------4---4----4--------4---4----|
Ab|---7--------7---------5-------5--------3--------3-------3--|
Eb|-----------------------------------------------------------|
 
eb|------------------|
bb|-------0----------|
Gb|-----0-------0----|
Db|---4-------4---4--|
Ab|-2-------2--------|
Eb|------------------|


Prechorus:
eb|----0----------------0------------|
bb|------0------0h1-------0-----1----|
Gb|-----------2-------------------0--|     X3
Db|---------0---------2-------2------|
Ab|--7--------------3-------3--------|
Eb|----------------------------------|


eb|----0------------------------------------------------|
bb|------0------0h1--1---------------1---------------1--|
Gb|-----------2------0---------------0---------------0--|
Db|---------0--------2---------------2---------------2--|
Ab|--7---------------3--3-3-3-3-3-3--3--3-3-3-3-3-3--3--|
Eb|---------------------....P.M....-----....P.M....-----|


Chorus (Distorted):

eb|----------------------------------------------------------------------|
bb|----------------------------------------------------------------------|
Gb|----------------------------------------------------------------------|
Db|-----------2-2-2-2-2-2-2-2--5-5-5-5-5-5-5-5--10-10-10-10-10-10-10-10--|
Ab|--2h3p2p0--2-2-2-2-2-2-2-2--5-5-5-5-5-5-5-5--10-10-10-10-10-10-10-10--|
Eb|-----------0-0-0-0-0-0-0-0--3-3-3-3-3-3-3-3---8--8--8--8--8--8--8--8--|

eb|-------------------|
bb|-------------------|
Gb|-------------------|
Db|--7-7-7-7-5-5-4-4--|      X2
Ab|--7-7-7-7-5-5-4-4--|
Eb|--5-5-5-5-3-3-2-2--|

PreVerse (Distorted):
[palm muted]
eb|-------------------------------|
bb|--------------------0----------|
Gb|------0-------0-------0---0-0--|
Db|----4-------4-----4-----4---4--|   X4
Ab|--7-------7-----7--------------|
Eb|--0-----0----------------------|
    


Verse 2 (Distorted):
[palm muted}
eb|------------------------------------------------------|
bb|--------0----------------0----------------0-----------|
Gb|------0-------0--------0-------0--------0-------0-----|
Db|----4-------4---4----4-------4---4----4-------4---4---|
Ab|--7-------7--------5-------5--------3-------3---------|
Eb|------------------------------------------------------|

eb|-------------------|
bb|--------0----------|
Gb|------0-------0----|
Db|----4-------4---0--|
Ab|--2-------2--------|
Eb|-------------------|




Important: The song above is NOT stored on the Chordie server. The original song is hosted at www.guitaretab.com. Chordie works as a search engine and provides on-the-fly formatting. Chordie does not index songs against artists'/composers' will. To remove this song please click here.

This song is displayed as text-only. Transposing and tuning is only available for chordpro-songs.

Login - add to songbook

Rating click stars to rate

Layout
Accuracy

SHARE PAGE  




You need to log in to post comments