Guitar Tabs, Chords and Lyrics


Im Ready   Misc. Unsigned Bands



I did not feel like tabbing the whole thing so basically I just did the intro, and it 
changes a little bit but the main part in the song is right here. And if enough people 
it saying do the whole thing I will do the whole thing okay?

So comment it and you will get the whole song basically.

Well here is what I have..........................................

Capo 3*
E---------------------------|
B----0----0------------0----|
G--------------------2--2---|
D------4----4----2/4--------|
A-2-----------------------2-|
E--------0----0-------------|

E---------------------------|
B----0----0------------0----|
G--------------------2--2---|
D------4----4----2/4--------|
A-2-----------------------2-|


Important: The song above is NOT stored on the Chordie server. The original song is hosted at www.guitaretab.com. Chordie works as a search engine and provides on-the-fly formatting. Chordie does not index songs against artists'/composers' will. To remove this song please click here.

This song is displayed as text-only. Transposing and tuning is only available for chordpro-songs.

Login - add to songbook

Rating click stars to rate

Layout
Accuracy

SHARE PAGE  




You need to log in to post comments