Guitar Tabs, Chords and Lyrics


Katie The Bourbon Lady   Misc. Unsigned Bands



-------------------------------------------------------------------------------
	     KATIE THE BOURBON LADY - In Company of Spiders
-------------------------------------------------------------------------------
Tabbed by: leakeg
Email: leakeg02@student.uwa.edu.au

Tuning: standard

Verse:

e|--------------------------------------------------|
B|--------------------------------------------------|
G|--------------------------------------------------|
D|--------------------4-----------6-----------4-----|
A|--------4-----2--2-----2--4--4-----4--2--2-----2--|
E|--2--2-----2--------------------------------------|

Chorus:

e|---------------------------------------------------------------|
B|---------------------------------------------------------------|
G|----------------4-4-4-4-4-4-4-4-6-6-6-6-6-6-6-6-6-6-6-6-6-6-6-6|
D|4-4-4-4-4-4-4-4-4-4-4-4-4-4-4-4-6-6-6-6-6-6-6-6-6-6-6-6-6-6-6-6|
A|4-4-4-4-4-4-4-4-2-2-2-2-2-2-2-2-4-4-4-4-4-4-4-4-4-4-4-4-4-4-4-4|


Important: The song above is NOT stored on the Chordie server. The original song is hosted at www.guitaretab.com. Chordie works as a search engine and provides on-the-fly formatting. Chordie does not index songs against artists'/composers' will. To remove this song please click here.

This song is displayed as text-only. Transposing and tuning is only available for chordpro-songs.

Login - add to songbook

Rating click stars to rate

Layout
Accuracy

SHARE PAGE  




You need to log in to post comments