Guitar Tabs, Chords and Lyrics


Arrancacorazones  Misc. Unsigned Bands

[Mim]   me dijiste
Sim Lam
Terminemos todo,
Re Lam
Mi vida es un desastre
Re
Y no te quiero en él
Sol
Pero al fin,
Re
Te seguí
Mim Sim
por un laberinto
Lam
De espejos rotos
Re Lam
Y aparecí en un barrio,
Re
Del que no puedo salir…


Sol Mim
Más, dame un poco más,
Sim
Quiero intoxicarme en vos,
Re Do Do7
Arrancacorazones

Sol Mim
Hoy, antes del final
Sim
Quiero intoxicarme en vos,
Re Do
Arrancacorazones,
Re
Dame tu droga

Ahora antes del solo viene una parte que dice: Sol-Mim-Re-Lam-Do-Mim

Solo

    [C5]      [D5]                   [C5]           [D5]                                   
E|--------------------------------------------------------|
B|------------------------------10b12b10-10---------------|
G|--9-~-11b12--11b12b11h-----12-------------11p9--7-9-7h--|
D|--------------------------------------------------------|
A|--------------------------------------------------------|
E|--------------------------------------------------------|


Sol Mim
Más, dame un poco más, |
Sim |
Quiero intoxicarme en vos, |
Re Do Do7 |
Arrancacorazones |
|
Sol Mim |x2
Hoy, antes del final |
Sim |
Quiero intoxicarme en vos, |
Re Do |
Arrancacorazones |

Ahora el solo final:

  [G]Más...        [Em]     quiero intoxic[Bm]arme en vos
e|-----------------------------------------------|
B|--------------------------------8-7h8-10-------|
G|--------7---7h9---------------9----------7-----|
D|----7-9---9------------------------------------|
A|-----------------------------------------------|
E|-----------------------------------------------|


    [D]            [C]                                                          
e|----------------------------|
B|---------5/7--5-------------|
G|---------5/7--5-------------|
D|--7--5-----------------8----|
A|----------------------------|
E|----------------------------|


   [G]Hoy...                   [Em]
e|----------------------------------------------------|
B|----------------------------------------------------|
G|-11b12b11b12b11b12b11b12---11b12b11b12b11b12b11b12--|
D|----------------------------------------------------|
A|----------------------------------------------------|
E|----------------------------------------------------|


  quiero intox[Bm]icarme en vos
e|-------------------------------------------------|
B|-------------------------------------------------|
G|--------------11b12b11b12b11b12b11b12------------|
D|-------------------------------------------------|
A|-------------------------------------------------|
E|-------------------------------------------------|


    [D] Arrancaco__ra_z[C]o__nes
e|------------------------------------|
B|------------------------------------|
G|---11b12b11b12b11-11-9bh------------|
D|------------------------------------|
A|------------------------------------|
E|------------------------------------|


   [G]Más...        [Em]           quiero intoxic[Bm]arme en vos
e|----------10------------10-----------------10---------|
B|-------------8-------------8p7-8--------------8-------|
G|-11b12b11------11b12b11-----------11b12b11------------|
D|------------------------------------------------------|
A|------------------------------------------------------|
E|------------------------------------------------------|


    [D]                  [C]          [Bb]                                          
e|-----------10-8-7-7h8------7h8-7h8p7--|
B|--------------------------------------|
G|--11b12b11----------------------------|
D|--------------------------------------|
A|--------------------------------------|
E|--------------------------------------|


   [G]Hoy...  [Em]    quiero intoxic[Bm]arme en vos
e|--7h------------------------------------|
B|---------8h----------------8p7----------|
G|-------------------------------7--------|
D|----------------------------------------|
A|----------------------------------------|
E|----------------------------------------|


   [D] Arrancacoraz[C]ones... dame tu droga.
e|--------------------------------------|
B|--------------------------------------|
G|--7--5---4--4h5--/7-------------------|
D|--------------------------------------|
A|--------------------------------------|
E|--------------------------------------|

Important: The song above is NOT stored on the Chordie server. The original song is hosted at www.guitaretab.com. Chordie works as a search engine and provides on-the-fly formatting. Chordie does not index songs against artists'/composers' will. To remove this song please click here.

Text color:
Chord color:
Chord grids: 
Font size:    
Page size: 

Bb Bm C C5 D D5 Em G
variations - click chord images

Login - add to songbook

Transpose chords

Tuning

Rating click stars to rate

Layout
Accuracy

SHARE PAGE  




You need to log in to post comments