Guitar Tabs, Chords and Lyrics


Shine   Misc. Unsigned Bands



----------------------------------------------------------------------------
			     Shine - The Morning Of
----------------------------------------------------------------------------
Tabbed by: Josh Gray
Email: pillsbury_doughboy25@yahoo.com

Tuning:Standard

This is played on piano, but ive arranged it for guitar
So if you ever wanna play this for a girl...;]

Verse
e|--2----2----2----2-----------------2----2----2----2----------------------|
B|--2----2----2----2-----------------2----2----2----2----------------------|
G|--4----4----4----4-----------------3----3----3----3----------------------|
D|--4----4----4----4-----------------4----4----4----4----------------------|
A|-----------------------------------4----4----4----4----------------------|
E|-------------------------------------------------------------------------|

   I stepped outside into the light,   The sun is bright...
Chorus
e|-------------------------------------------------------------------------|
B|-------------------------------------------------------------------------|
G|--4----------------------------------------------------------------------|
D|--4------4--------6------------------------------------------------------|
A|--2------4--------4------------------------------------------------------|
E|---------2--------4------------------------------------------------------|

   Never felt this way in my whole life...

Lyrics: 

I stepped outside into the light
The sun is bright, i close my eyes
The summer caught me by surprise
And now im left here waiting
for you to tell me how it is
If i could only get a kiss
I could make you take a risk
On a boy who wants this
And now, the sun has sunk below
The evening wind now starts to blow
I catch the scent of your perfume
It lifts me higher than the moon

Ill be fine, if youll stay by my side

Never felt this way in my whole life
Never had this feeling before tonight
I cant get you off my mind
Cause you shine girl, oh you know you shine

Your eyes are brighter than the sun
They make me see that your the one
Your smile takes my breath away
And leaves me with nothing to say
You arent like any other girl
That ive met in this whole world
Your so much more than they could be
So wont you please just be with me

Ill be fine, if youll stay the night



I recommend using your thumb during the verse to silence the low E.
Remember, this song is good to sing to girls, especially if theyve never 
heard it. Then you can tell them you wrote it :P

And i leave out the interlude, cuz it sounds better without,
specially if your singin it to a girlllll :]

| /  slide up
| \  slide down
| h  hammer-on
| p  pull-off
| ~  vibrato
| +  harmonic
| x  Mute note
===============================================================================


Important: The song above is NOT stored on the Chordie server. The original song is hosted at www.guitaretab.com. Chordie works as a search engine and provides on-the-fly formatting. Chordie does not index songs against artists'/composers' will. To remove this song please click here.

This song is displayed as text-only. Transposing and tuning is only available for chordpro-songs.

Login - add to songbook

Rating click stars to rate

Layout
Accuracy

SHARE PAGE  




You need to log in to post comments