Guitar Tabs, Chords and Lyrics


Colorado Sunrise   Misc. Unsigned Bands



Colorado Sunrise - 3OH!3

Tabber: Ryan Hennessey

URL: www.myspace.com/theguyinthefuckyouhat


Tuning: Standard

Notes: The guy who posted this before me had it mostly right. I figured the end set of 
while playing. Please rate!

         Guitar 1

e|-------------------------|
B|-------------------------|
G|--3-1--------------------|
D|1-------------------0----|
A|----------6-6-----6------|
E|--------4-------4--------|

e|-------------------------|
B|-------------------------|
G|--3-1--------------------|
D|1-------------------0----|
A|----------6-6-----6------|
E|--------4-------4--------|

         Guitar 1 & 2

e|-------------------------|
B|-------------------------|
G|--3-1--------------------|
D|1-------------------0----|
A|----------6-6-----6------|


Important: The song above is NOT stored on the Chordie server. The original song is hosted at www.guitaretab.com. Chordie works as a search engine and provides on-the-fly formatting. Chordie does not index songs against artists'/composers' will. To remove this song please click here.

This song is displayed as text-only. Transposing and tuning is only available for chordpro-songs.

Login - add to songbook

Rating click stars to rate

Layout
Accuracy

SHARE PAGE  




You need to log in to post comments