Guitar Tabs, Chords and Lyrics


Through The Eyes Of Our King   Misc. Unsigned Bands



----------------------------------------------------------------------------
             Crucial Injustice - Through the eyes Of our king
----------------------------------------------------------------------------
Tabber: Christian
E-mail: none

Tuning: Drop D

Intro 1:
                x4
e|--------------------------------|
B|--------------------------------|
G|----0-------0-------0-------0---|
D|--9---9---7---7---5---5---7---7-|
A|7-------5-------3-------5-------|
D|--------------------------------|

Intro 2A:

e|----------------|
B|----------------|
G|----------------|
D|7777777777777777|
A|5555555555555555|
D|----------------|
(slowly release PM)

Intro 2B:
                x3
e|--------------------------------|
B|--------------------------------|
G|--------------------------------|
D|55555555777788885555555533333333|
A|55555555777788885555555533333333|
D|55555555777788885555555533333333|

Verse: (Play Intro 1)
Pre-Chorus: (Play Intro 2A)
Chorus: (Play Intro 2B)

Gtr Solo:
Part A:
e|11--11--12--11--11--11--12--11--9-9-10-9-9-9-10-9-|
B|--11--11--11--11--11--11--11--11-9-9--9-9-9-9--9-9|
G|--------------------------------------------------|
D|--------------------------------------------------|
A|--------------------------------------------------|
D|--------------------------------------------------|

Part B:
e|10--10--12--10--11--10--13--10--9-9-10-9-12-9-14-9-|
B|--10--10--10--10--10--10--10--10-9-9--9-9--9-9--9-9|
G|---------------------------------------------------|
D|---------------------------------------------------|
A|---------------------------------------------------|
D|---------------------------------------------------|

Gtr Solo 2: (verse)
                  x2
e|------------------------------------|------------------------------------|
B|------------------------------------|------------------------------------|
G|--11-12-11---9-11-9---7-9-7---6-7-6-|--9-11-9---11-12-11---7-9-7---6-7-6-|
D|9----------7--------5-------4-------|7--------9----------5-------4-------|
A|------------------------------------|------------------------------------|
D|------------------------------------|------------------------------------|

Outro:
                x2
e|--------------------------------|
B|--------------------------------|
G|9-9-9-9-7-7-7-7-5-5-5-5-7-7-7-7-|
D|9-9-9-9-7-7-7-7-5-5-5-5-7-7-7-7-|
A|7-7-7-7-5-5-5-5-3-3-3-3-7-7-7-7-|
D|--------------------------------|

Structure:
Intro 1
Intro 2A
Intro 2B
Verse 1
Pre-Chors 1
Chorus 1
Verse 2
Pre-Chorus 2
Chorus 2
(chorus)Gtr Solo
 -Part A
 -Part B
 -Part A
Inst. verse
(verse)Gtr solo


Important: The song above is NOT stored on the Chordie server. The original song is hosted at www.guitaretab.com. Chordie works as a search engine and provides on-the-fly formatting. Chordie does not index songs against artists'/composers' will. To remove this song please click here.

This song is displayed as text-only. Transposing and tuning is only available for chordpro-songs.

Login - add to songbook

Rating click stars to rate

Layout
Accuracy

SHARE PAGE  




You need to log in to post comments