Guitar Tabs, Chords and Lyrics


Walk Hard   Misc. Unsigned Bands



This is my first tab,
so dont judge.
cmnt plz! :)


-------------3------------------------------------------2-----------|
-------------3------------------------------------------3-----------|
-------------3----------------44--------44--------------2-x5--------|
-------------5-x7-------------44---44---44----------0---0-----------|
-----4-5-4---5------4/5--4--2-22---44-2-22---4/5--7-----------------|
-5/7-------3-3-------------------2-22-------------------------------|

----------------------------|
----------------------------|
-----------44--------44-----|
-----------44---44---44-----|
-4/5--4--2-22---44-2-22-----|


Important: The song above is NOT stored on the Chordie server. The original song is hosted at www.guitaretab.com. Chordie works as a search engine and provides on-the-fly formatting. Chordie does not index songs against artists'/composers' will. To remove this song please click here.

This song is displayed as text-only. Transposing and tuning is only available for chordpro-songs.

Login - add to songbook

Rating click stars to rate

Layout
Accuracy

SHARE PAGE  




You need to log in to post comments