Guitar Tabs, Chords and Lyrics


Zabiore Cie   Misc. Unsigned Bands



E:---------------------------------------------------------12-----------------------------12b14b12|
B:-------------------------------------------------------------12-12------------------------------|
G:------------------------------------------------9-9-9-----------11b13b11-9-11-------------------|
D:-------------------------------------9-9-9/11--------------------------------------9------------|
A:--4-7-4-4/7-7-4------4-7-4-4/7------------------------------------------------------------------|
E:7-----------------7--7--------------------------------------------------------------------------|

E:--12p9--------------------------------------------------------------------12-11------------|
B:--------12p9-12p9----12p9---12p9--------------------------------------------12----12-10—9--|
G:---------------------11-------11------11-9-11-9-11b13b11-9-11---9--9—9-----9---9---9-------|
D:-------------------------------------------------------------------------------------------|
A:-------------------------------------------------------------------------------------------|
E:-------------------------------------------------------------------------------------------|

E:-------------------------------------------------9-11-11b12------------|
B:-9h10p9----------------------------------------------------------------|
G:----------11—11b13b11b13b11-9-9/11----------------------2--------------|
D:--------------------------------------------------------------------2--|
A:--------------------------------------------------------------------0--|


Important: The song above is NOT stored on the Chordie server. The original song is hosted at www.guitaretab.com. Chordie works as a search engine and provides on-the-fly formatting. Chordie does not index songs against artists'/composers' will. To remove this song please click here.

This song is displayed as text-only. Transposing and tuning is only available for chordpro-songs.

Login - add to songbook

Rating click stars to rate

Layout
Accuracy

SHARE PAGE  




You need to log in to post comments