Guitar Tabs, Chords and Lyrics


Keep Away Way  Misc. Unsigned Bands



Words and Music by Miso Hornee Now

Gtr I (E A D G B E) - 'Miko'

N.C.
[4/4] Gtr I
S S S S S S S S S S S S S S S S
|-19p15-------------------19p15-------------------|
|-------17----17p16-------------17----17p16-------|
|----------16-------16p15----------16-------16p15-|
|-------------------------------------------------|
|-------------------------------------------------|
|-------------------------------------------------|
                          PM--------|

S S S S S S S S S S S S S S E
|-19p15------------------------------------|
|-------17----17p16------------------------|
|----------16-------16p15------------------|
|-----------------------------2------------|
|---------------------------2---2---3-2tr3-|
|-------------------------0-------1--------|
  TP TP TP TP   TP PM--------------------|

Q Q Q Q Q S S S S S S S S S S S S
|-------------|----------------------------|
|-------------|----------------------------|
|-------------|----------------------------|
|----------6--|-5--5-----------------------|
|----7--8-----|------8p5---8p7-----5p3-----|
|-0-----------|----------8-----8p7-----5p3-|



[3/4] S S S S S S S S Q    S S S S S S S S Q
|--------------------|---------------------|
|--------------------|---------------------|
|--------------------|---------------------|
|--------------------|---------------------|
|---------8-8-8-8----|---------9-9-9-9-----|
|-5-5-5-5---------4--|-7-7-7-7---------8---|



  PM| [E5Eb5/BbD5E5/B]    PM|     PM| [E5Eb5/Bb]      PM| [D5E5/B]    PM| [F5E5/B]    PM| [E5Eb5/Bb]
S S S S S S S S S S S S S S S S S S S S S S S S
|-------------------------|-------------------------|
|-------------------------|-------------------------|
|-------------------------|-------------------------|
|-----2-1-----0-2-----2-1-|-----0-2-----3-2-----2-1-|
|-----2-1-----0-2-----2-1-|-----0-2-----3-2-----2-1-|
|-0-0-----0-0-----0-0-----|-0-0-----0-0-----0-0-----|



  [EmF#DmBbm6/EBb5/F]        PM|   PM| [Bb5/Emadd9]
E E E E S S E S S E W
|---------------------|-2----|
|-8-7-6-2-------------|-0----|
|-0-0-0-0-------------|-0----|
|-9-8-7-3-----3-----3-|-2----|
|-7-6-5-1-----1-----1-|-2----|
|-0-0-0-0-0-0-1-0-0-1-|-0----|



  [Eb5]             [E5EbG]      [F#]    [E5]                                                                           
  PM---------|

S E. S S S S E E E E E H..
|----------------------|----------|
|----------------------|----------|
|----------------------|----------|
|----------------------|----------|
|-1-1--1-1-1-1-2-1-2-1-|-2--------|
|-0-0--0-0-0-0-0-0-3-2-|-0--------|



Duration Legend
---------------
W - whole; H - half; Q - quarter; E - 8th; S - 16th; T - 32nd; X - 64th; a - acciaccatura

+ - note tied to previous; . - note dotted; .. - note double dotted
Uncapitalized letters represent notes that are staccato (1/2 duration)
Irregular groupings are notated above the duration line
Duration letters will always appear directly above the note/fret number it represents the
duration for. Duration letters with no fret number below them represent rests. Multi-
bar rests are notated in the form Wxn, where n is the number of bars to rest for. Low
melody durations appear below the staff

Tablature Legend
----------------

h - hammer-on
p - pull-off
b - bend
pb - pre-bend
r - bend release (if no number after the r, then release immediately)
/\ - slide into or out of (from/to "nowhere")
s - legato slide
S - shift slide
- natural harmonic
(n) - artificial harmonic
n(n) - tapped harmonic
~ - vibrato
tr - trill
T - tap
TP - trem. picking
PM - palm muting
\n/ - tremolo bar dip; n = amount to dip
\n - tremolo bar down
n/ - tremolo bar up
/n\ - tremolo bar inverted dip
= - hold bend; also acts as connecting device for hammers/pulls
<> - volume swell (louder/softer)
x - on rhythm slash represents muted slash
o - on rhythm slash represents single note slash

Misc Legend
-----------

| - bar
|| - double bar
||o - repeat start
o|| - repeat end
*| - double bar (ending)
: - bar (freetime)
$ - Segno
& - Coda
Tempo markers - = BPM(8/16=s8/s16), where s8 = swing 8ths, s16 = swing 16ths


** Generated using Power Tab Editor by Brad Larsen: The Official Power Tab Web Site

Important: The song above is NOT stored on the Chordie server. The original song is hosted at www.guitaretab.com. Chordie works as a search engine and provides on-the-fly formatting. Chordie does not index songs against artists'/composers' will. To remove this song please click here.

Text color:
Chord color:
Chord grids: 
Font size:    
Page size: 

E5 Eb5 F#
variations - click chord images

Login - add to songbook

Transpose chords

Tuning

Rating click stars to rate

Layout
Accuracy

SHARE PAGE  




You need to log in to post comments