Guitar Tabs, Chords and Lyrics


You Dont Make Friends With Salad  Misc. Unsigned Bands



Words and Music by Miso Hornee Now

Gtr I (E A D G B E) - 'Miko'

[4/4] Gtr I
PM PM PM
  [E]  [E]  [E]  [E]  [E]  [E]  [E]  [E]    [E]  [E]  [E]  [E]  [E]  [E]  [E]  [E]    [E]  [E]  [E]  [E]  [E]  [E]  [E]  [E]    [E]  [E]  [E]  [E]  [E]  [E]  [E]  [E]                              
|-----------------|-----------------|-----------------|------------------|
|-----------------|-----------------|-----------------|------------------|
|-5-5-5-5-5-5-7-7-|---------------2-|-----------------|-------------4-5--|
|-5-5-5-5-5-5-7-7-|-3-3-3-3---5-----|-5-5-5-5-5-5-7-7-|-3-3-3-3---5------|
|-3-3-3-3-3-3-5-5-|-3-3-3-3-2---2---|-5-5-5-5-5-5-7-7-|-3-3-3-3-2--------|
|-----------------|-1-1-1-1---------|-3-3-3-3-3-3-5-5-|-1-1-1-1----------|



N.C.
PM| PM| PM|
  [E]  [E]  [E]  [E]  [E]  [E]  [E]   [E]    [E]   [E]   [E]  [E]   [E]  [E]   [E]  [E]                                                             
|------------------|-----------12-8------|
|-7-----8-----8-10-|----------------12-8-|
|------------------|---------9-----------|
|------------------|------10-------------|
|---7-7---7-7------|---10----------------|
|---0-0---0-0------|-8-------------------|



PM| PM| PM| PM|
  [E]  [E]  [E]  [E]  [E]  [E]  [E]   [E]    [E]   [E]   [E]  [E]  [E]  [E]   [E]  [E]                                                              
|------------------|--------------------|
|-7-----8-----8-10-|--------------------|
|------------------|---------9-7--------|
|------------------|------10-----9------|
|---7-7---7-7------|---10----------10---|
|---0-0---0-0------|-8----------------7-|



  [D]  [E]PM| [EmE]  PM| [EmF#m]       [EmE]  PM| [F#mE]   PM| [F#mG]
  [E]  [E]  [E]  [E]  [E]  [E]  [E]   [E]    [E]  [E]  [E]   [E]  [E]  [E]   [E]   [E]                                                              
|------------------|--------------------|
|-7-----8-----8-10-|-8-----10-----10-12-|
|-7-----9-----9-11-|-9-----11-----11-12-|
|------------------|--------------------|
|---7-7---7-7------|---7-7----7-7-------|
|---0-0---0-0------|---0-0----0-0-------|

  [D/F#]   PM| [Em/G]   PM| [Em/F#m/AG/B]                          [B5]
   [E]  [E]  [E]   [E]  [E]  [E]   [E]   [E]     [E]   [E]   [E]   [E]   [E]   [E]   [E]   [E]                                                      
|-10-----12-----12-14-|-15-15-15-15-15-15-14-14-|
|--7------8------8-10-|-12-12-12-12-12-12-12-12-|
|---------------------|-------------------------|
|---------------------|-------------------------|
|---------------------|-------------------------|
|----0-0----0-0-------|-------------------------|

  [Em/G]  W             +W
|-<12>--------|-(<12>)----|
|-<12>--------|-(<12>)----|
|-<12>--------|-(<12>)----|
|-------------|-----------|
|-------------|-----------|
|-------------|-----------|



Duration Legend
---------------
W - whole; H - half; Q - quarter; E - 8th; S - 16th; T - 32nd; X - 64th; a - acciaccatura

+ - note tied to previous; . - note dotted; .. - note double dotted
Uncapitalized letters represent notes that are staccato (1/2 duration)
Irregular groupings are notated above the duration line
Duration letters will always appear directly above the note/fret number it represents the
duration for. Duration letters with no fret number below them represent rests. Multi-
bar rests are notated in the form Wxn, where n is the number of bars to rest for. Low
melody durations appear below the staff

Tablature Legend
----------------

h - hammer-on
p - pull-off
b - bend
pb - pre-bend
r - bend release (if no number after the r, then release immediately)
/\ - slide into or out of (from/to "nowhere")
s - legato slide
S - shift slide
- natural harmonic
(n) - artificial harmonic
n(n) - tapped harmonic
~ - vibrato
tr - trill
T - tap
TP - trem. picking
PM - palm muting
\n/ - tremolo bar dip; n = amount to dip
\n - tremolo bar down
n/ - tremolo bar up
/n\ - tremolo bar inverted dip
= - hold bend; also acts as connecting device for hammers/pulls
<> - volume swell (louder/softer)
x - on rhythm slash represents muted slash
o - on rhythm slash represents single note slash

Misc Legend
-----------

| - bar
|| - double bar
||o - repeat start
o|| - repeat end
*| - double bar (ending)
: - bar (freetime)
$ - Segno
& - Coda
Tempo markers - = BPM(8/16=s8/s16), where s8 = swing 8ths, s16 = swing 16ths


** Generated using Power Tab Editor by Brad Larsen: The Official Power Tab Web Site

Important: The song above is NOT stored on the Chordie server. The original song is hosted at www.guitaretab.com. Chordie works as a search engine and provides on-the-fly formatting. Chordie does not index songs against artists'/composers' will. To remove this song please click here.

Text color:
Chord color:
Chord grids: 
Font size:    
Page size: 

B5 D D/F# E F#mG
variations - click chord images

Login - add to songbook

Transpose chords

Tuning

Rating click stars to rate

Layout
Accuracy

SHARE PAGE  




You need to log in to post comments