Chordie logo


Radio   Misc. Unsigned Bands



Banda: Catpeople
Canción: Radio
El efecto de la guitarra en esta canción, es de un ligero delay.

Intro:

e--7---7----12---12---14---14----7--------------------------|
B--7---7----12---12---12---12--------5-------8--------------|
G--7---7----12---12---12---12--------------------7/9--------|
D--7---7----12---12---12---12-------------------------9-----|
A--7--------12---12---12---12-------------------------------|
E-----------------------------------------------------------|

1er verso

e---7--------------------------|
B------5---------8-------------|
G--------------------7/9-------|
D------------------------------|
A------------------------------|
E------------------------------|

Coro: según yo, el coro se divide en tres compaces, pero no tengo el primero, asi que
los dos últimos. Y el rasgueo es de arriba hacia abajo repetidas veces.
e---12-------7---|
B---12-------7---|
G---12-------7---|
D---14-------9---|
A----------------|
E----------------|

2do verso

e------------------------------------------------------------|
B-----------8-------------------8--------7-------------7-----|
G--7--9--7-----7----7---9---7-----7-------7—9—7-----7—9—7----|
D------------------------------------------------------------|
A------------------------------------------------------------|
E------------------------------------------------------------|

Después del segundo coro, viene un estribillo final.

e------------------------------------------------------------|
B------------------------------------------------------------|
G-----------------------------------------7-7----------7-7---|
D------9-7-9---9-9---9-7-9---9-9---9-7-9-------9-7-9---------|
A------------------------------------------------------------|
E------------------------------------------------------------|


e--------------------------|
B---8--7-------------------|
G--------------9—7---------|
D------------9------9------|
A----------------------10--|
E--------------------------|

A lo largo de la canción se repiten fragmentos del intro, solo es cuestión de escucharla
tener bien los tiempos. Quejas, sugerencias y/o mentadas de madre favor de
mandarlos a ochocuatro@hotmail.com



Important: The song above is NOT stored on the Chordie server. The original song is hosted at www.guitaretab.com. Chordie works as a search engine and provides on-the-fly formatting. Chordie does not index songs against artists/composers will. To remove this song please click here.

This song is displayed as text-only. Transposing and tuning is only available for chordpro-songs.

Login - add to songbook

Rating click stars to rate

Layout
Accuracy

SHARE PAGE  




You need to log in to post comments