Guitar Tabs, Chords and Lyrics


Rise   Misc. Unsigned Bands



This is a riff i came up with for my band. Tell me what you think of it

e|----------------------------------------------------------------------------|
B|----------------------------------------------------------------------------|
G|----------------------------------------------------------------------------|
D|----------------------------------------------------------------------------|
A|-----------------------------5----6-------------------------------------------|
E|-------0-2-3-0-2-3-0-2-3b----------------0-2-3-0-2-3-0-2-3b-----------------|
Repeat 4x

e|----------------------------------------------------------------------------|
B|----------------------------------------------------------------------------|
G|----------------------------------------------------------------------------|
D|----------------------------------------------------------------5-7---------|
A|------------------5-------------------5-7--------------------5-7------------|


Important: The song above is NOT stored on the Chordie server. The original song is hosted at www.guitaretab.com. Chordie works as a search engine and provides on-the-fly formatting. Chordie does not index songs against artists'/composers' will. To remove this song please click here.

This song is displayed as text-only. Transposing and tuning is only available for chordpro-songs.

Login - add to songbook

Rating click stars to rate

Layout
Accuracy

SHARE PAGE  




You need to log in to post comments