Guitar Tabs, Chords and Lyrics


Solstice   Misc. Unsigned Bands



-------------------------------------------------------------------------
                     Solstice - The Arusha Accord
-------------------------------------------------------------------------

My Email: moss_grows_on_tiles@hotmail.com

Band website: www.myspace.com/thearushaaccorduk

This song was recorded on two guitars. I've tabbed it for one, so it's difficult and
are some big stretches but i can play it fine and if you're looking to play songs by this
chances are you're good enough to understand how technical they are. This isn't 100% and 
dont know the real tuning but I've done my best!


E|-------------------------------------5t8/10p8p5---5—5-----------------12—8-------------------|
B|--------------10--13-15--------6-----------------6—5—3-------------10------------------------|
G|-——------—----9----------------------------------------------5-7------------10/12—7-10-9-7---|
D|-—7--——--10-------------10—12----------------------------------------------------------------|
A|------8--12--------------8--8--5-------------------------------------------------------------|
D|--3---7-------—---15--------8---------------------------12p0—8-9-----------------------------|

--------------------------------------------------------------------6p5------------6p5---------|
-----------------------------------------------------------------------------------------------|
-------------------------------------10---------------------------7------5/7\5---7-----7/5-----|
--10---------5/7------------5/7-------------------3----5---------8--------------8--------------|
-------------------8p7p5------------------------5----------------------------------------------|


Important: The song above is NOT stored on the Chordie server. The original song is hosted at www.guitaretab.com. Chordie works as a search engine and provides on-the-fly formatting. Chordie does not index songs against artists'/composers' will. To remove this song please click here.

This song is displayed as text-only. Transposing and tuning is only available for chordpro-songs.

Login - add to songbook

Rating click stars to rate

Layout
Accuracy

SHARE PAGE  




You need to log in to post comments