Guitar Tabs, Chords and Lyrics


1 Plus   Misc. Unsigned Bands



Schecter C-1 Plus by Cella Kotak (Indonesia's Schecter Artist)
Drop D Tuning (DADGBE)
Delay
Tabbed by daneboyzzz

E ----------------------------------------------|
B ----8-7-------------------8-7-----------------|
G --------7-----10----9---------7-----10----9---| x2
D ----------------------------------------------|
A ----------8-----------8---------8-----------8-|
D --0---------8----10-----0---------8----10-----|

E ----------------------------------------------|
B ----10----8-10---11----10-8-10---10----8-10---|
G -------10-----------10--------------10--------|
D ----------------------------------------------|
A ----------------------------------------------|
D --0------------0---------------0--------------|

E ----------------------------------------------|
B ----11----10-8-7------------------------------|
G -------10-------------------------------------|
D ----------------------------------------------|
A ----------------------------------------------|


Important: The song above is NOT stored on the Chordie server. The original song is hosted at www.guitaretab.com. Chordie works as a search engine and provides on-the-fly formatting. Chordie does not index songs against artists'/composers' will. To remove this song please click here.

This song is displayed as text-only. Transposing and tuning is only available for chordpro-songs.

Login - add to songbook

Rating click stars to rate

Layout
Accuracy

SHARE PAGE  




You need to log in to post comments