Guitar Tabs, Chords and Lyrics


Someone Like You  Misc. Unsigned Bands

        	   |--0--| |--0--| |--2--| |--0--| |--3--|


        	   |--1--| |--1--| |--3--| |--0--| |--3--|


        	   |--2--| |--0--| |--2--| |--0--| |--0--|

|--2--| |--2--| |--0--| |--2--| |--0--|
|--0--| |--3--| |--x--| |--2--| |--2--|
|--x--| |--0--| |--x--| |--x--| |--3--|
Verse: C - G - D - G / C - G - D / G - D - D - G
Chorus: G - D - D - Am - G / C - G - D - G (x2)
Bridge: Em - C - G -D (x2) / G - D - D - G
[C]       [Cadd9]            [C]      [Cadd9]            [C]      [G]                [D]                     
|-----------------|-----------------|-----------------|-----------------|
|-----1---3---3---|-----1---3---3---|---------------3-|-----------3-----|
|---0---0---0---0-|---0---0---0---0-|-------------0---|-0-------2---2---|
|-----------------|-----------------|-----------0-----|---0---0-------0-|
|-3---------------|-3---------------|-3-2-0---2-------|-----0-----------|
|-----------------|-----------------|-------3---------|-----------------|

[G]            [D]              [C]                                                     
|-----------------|-----------------|-------|                     |--3--|
|-------3---------|---3-------------|-------|                     |--3--|
|-----0---0-------|-2---2-------0---|---0---|   // Begin intro    |--0--|
|---0-------0---0-|-------0---2-----|-2---2-|      strum w/ G     |--0--|
|-2-----------0---|---------3-----3-|-------|                     |--2--|
|-----------------|-----------------|-------|                     |--3--|

INTRO (cont.): (strum) G - D - D

[C] Is it still a [G] question even [D] if I've know the [G] answer?
[C] Un-tie this [G] knot that's [D] been holding it all together.
[G] Bring me [D] to sec-ur-ity [D] I've never [G] known.

CHORUS:
Cause I'm [Am] praying [G] to-day,
[D] To whoever brought [D] me to you.
[Am] Praying [G] to-day.
[D] That one day [D] I'll show you,
[C] That everyone [G] needs someone [D] like you to [G] hold,
[C] And everyone [G] needs someone [D] like you to [G] love.

[C] You were [G] there when [D] I figured I'd throw [G] it away.
[C] Let go of [G] hopes and fears that [D] filled all my da-ys.
[G] So I [D] dropped down [D] to on my [G] knees.

CHORUS

(small guitar solo): C - G - D - D x2

BRIDGE:
[Em] Cause I'll [C] be all [G] that you need,
[D] That's the least you'll get from me.
[Em] And I'll [C] be wherever [G] you need,
[D] That's the least you'll get from me.
[G] I say this [D] drop-ping [D] to my [G] knees.

CHORUS

[C] I ask this [G] question even [D] though I've know the answer,
[C] Untie this [G] knot that [D] keeps me all [G] together.

Important: The song above is NOT stored on the Chordie server. The original song is hosted at www.guitaretab.com. Chordie works as a search engine and provides on-the-fly formatting. Chordie does not index songs against artists'/composers' will. To remove this song please click here.

Text color:
Chord color:
Chord grids: 
Font size:    
Page size: 

Am C Cadd9 D Em G
variations - click chord images

Login - add to songbook

Transpose chords

Tuning

Rating click stars to rate

Layout
Accuracy

SHARE PAGE  




You need to log in to post comments