Guitar Tabs, Chords and Lyrics


The Authors Acoustic   Misc. Unsigned Bands



Alright so i am in love with Versaemerge and now that they are finally having acoustic 
on youtube i decided to atleast tab out the intro to the Authors and once i get the rest 
ill add it on here. But if you have any questions let me know at:
Natashastoked@yahoo.com or myspace.com/lilnatx3

Tuning: Drop D


Refer to the video for strumming pattern!
http://www.youtube.com/watch?v=-NSdezPKS-Q

Intro:
-----x--x-xxxx---xxxxxx-xxxxxxx---xxx----x-x-x-x-x--x--x--x--x--x--x--x--|
-----x--x-xxxx---xxxxxx-xxxxxxx---xxx----x-x-x-x-x--x--x--x--x--x--x--x--|
-----x--x-x333---555555-5555555---777----9-9-9-9-9--10-10-10-10-10-10-10-|
-----0--0-0333---666666-5555555---777---10-10-10-10-10-10-10-10-10-10-10-|
-----0--0-0333---555555-5555555---777----8-8-8-8-8--8--8--8--8--8--8--8--|
-----0--0-0333---555555-5555555---777----8-8-8-8-8--8--8--8--8--8--8--8--|


-----x--x--x--x--x--x--x---xxxxxxx--xxx-xxxxx-*mute xxxx*--x-------|
-----x--x--x--x--x--x--x---xxxxxxx--xxx-66666-*mute 6666*--x-------|
-----9--9--9--9--9--9--9---3333333--555-77777-*mute 7777*--9-------|
-----10-10-10-10-10-10-10--3333333--555-55555-*mute 5555*--10------|     Let ring.
-----8--8--8--8--8--8--8---3333333--555-55555-*mute 5555*--8-------|
-----8--8--8--8--8--8--8---3333333--555-55555-*mute 5555*--8-------|




Important: The song above is NOT stored on the Chordie server. The original song is hosted at www.guitaretab.com. Chordie works as a search engine and provides on-the-fly formatting. Chordie does not index songs against artists'/composers' will. To remove this song please click here.

This song is displayed as text-only. Transposing and tuning is only available for chordpro-songs.

Login - add to songbook

Rating click stars to rate

Layout
Accuracy

SHARE PAGE  




You need to log in to post comments