Guitar Tabs, Chords and Lyrics


Down In Their Box Below   Misc. Unsigned Bands



-------------------------------------------------------------------------------
			     DOWN IN THEIR BOX BELOW - Marty Simpson
-------------------------------------------------------------------------------
Tabbed by: woLLikopter
Email: wolle.kopter@gmx.net

It's surprising that I couldn't find this Tab on the Internet, since this is such a 
song. I tried my best to make it as accurate as possible. It's very fun to play, but kinda 
to sing.
Well, just have fun and if you think you have a better Version or you completed the 
for it, just send me an Email: wolle.kopter@gmx.net
Cheers!
woLLikopter

Tuning: standart
Guitar 1:
e|---------------------------------------------------------------------------|
B|--3-3--4-4--4-4--4-1-------------------------------------------------------|
G|--3-3--5-5--5-5--3-2-------------------------------------------------------|
D|--5-5--5-5--5-5--5-3-------------------------------------------------------|
A|--5-5--3-3--3-3--6-3-------------------------------------------------------|
E|--3-3--------------1-------------------------------------------------------|

Guitar 2 (Intro):
e|--6-8b-6-8-8--8b-8-6-8-10-6--13-13-11-10-11-10-6-6\3--8b-8-6-8-10-6----------|
B|-----------------------------------------------------------------------------|
G|-----------------------------------------------------------------------------|
D|-----------------------------------------------------------------------------|
A|-----------------------------------------------------------------------------|
E|-----------------------------------------------------------------------------|

Lyrics:
Nobody ever noticed her, then I
See her go down below
So take my hand get off from there
So we can rock and roll
And I catch a little smile from you
And now I see she's wanting more, more
Just a little more, more
And all we do is rock and roll
And all we do is rock and roll
And all we do is
Yeah second to none
We're havin some fun, are you?
And you know you've got to get yourself
Flat on the floor
Shake it some more, kiss it
You dont ditch, you know that you will regret it
(complete lyrics are coming...)




| /  slide up
| \  slide down
| h  hammer-on
| p  pull-off
| ~  vibrato
| +  harmonic
| x  Mute note


Important: The song above is NOT stored on the Chordie server. The original song is hosted at www.guitaretab.com. Chordie works as a search engine and provides on-the-fly formatting. Chordie does not index songs against artists'/composers' will. To remove this song please click here.

This song is displayed as text-only. Transposing and tuning is only available for chordpro-songs.

Login - add to songbook

Rating click stars to rate

Layout
Accuracy

SHARE PAGE  




You need to log in to post comments