Guitar Tabs, Chords and Lyrics


Clinically Dead For 16 Hours  Misc. Unsigned Bands

[Am7]My heart is a terrible [D7]failing
[Am7]I am just [D7]beginning


[PLUCKING PART](or you could just use the chords and pluck)
e]-----7----------7----------8------------10-------------7----------7----------8---------10--[
B]---8---8------8---8------8---8-------10----10--------8---8------8---8------8---8-------10--[
G]-7-------7--7-------7--9-------9--11----------11---7-------7--7-------7--9-------9-----11--[
D]-------------------------------------------------------------------------------------------[
A]-------------------------------------------------------------------------------------------[
E]-------------------------------------------------------------------------------------------[


to fat[G]hom Love’s difficult[D] concept   [Em]                Swift beat[G]s are bending my mind[D]set [Em]      [G--]

[end of plucking part] 
It’s wasting my time    [G]        [D]
It’s wasting so mu[Em]ch precious time         [C]
Touring white castles wit[G]h other survivors   [D]
And [Em]then without [D]warning I was…
Chorus:

[G]Clinically dead for sixteen [D]hours
[Em]Show me all the things my heart desires[C]
[G]Let this be the longe[D]st happy dream of my l[Em]ife         [C]
[G]Clinically dead for sixteen [D]hours
[Em]Crossing all the roads where lines bega[C]n
[G]Break my hourglass and [D]let the sands move in [Em]time              [C]

[RONDALLA-LIKE PART](see bottom part for the rondalla-LIKE part tab)
Three short mo[G]ons I survived th[D]at fatal day         [Em]
But reach[G]ing breaking point,     [D]
I sleep and face [Em]the knife of fate
And my heart br[G]eathe air for th[D]e first time[Em]
Yes, my heart b[G]reathe air for t[D]he first tim[Em]e
[PLUCKING PART] (or you could just use the chords and pluck)
e]-----7----------7----------8------------10-------[
B]---8---8------8---8------8---8-------10----10----[
G]-7-------7--7-------7--9-------9--11----------11-[
D]-------------------------------------------------[
A]-------------------------------------------------[
E]-------------------------------------------------[

A stitc[G]h in time[D] and skin    [Em]    [C]
Has changed[G] my life and the lives of my kin[D]             [Em]      [C]

e]-----7----------7----------8------------10-------------7----------7----------8---------10--[
B]---8---8------8---8------8---8-------10----10--------8---8------8---8------8---8-------10--[
G]-7-------7--7-------7--9-------9--11----------11---7-------7--7-------7--9-------9-----11--[
D]-------------------------------------------------------------------------------------------[
A]-------------------------------------------------------------------------------------------[
E]-------------------------------------------------------------------------------------------[

A stitc[G]h in time[D] and skin    [Em]    [C]
Has changed[G] my life and the lives of my kin[D]             [Em]      [C-]

I’m keeping my time      [G]        [D]
I’m keeping my precious li[Em]ttle time        [C]

Touched by the Hand that’s[G] been rocking my cradle     [D]
I’ll [Em]always rem[D]ember I was
Chorus:

[G]Clinically dead for sixteen [D]hours
[Em]Show me all the things my heart desires[C]
[G]Let this be the longe[D]st happy dream of my l[Em]ife         [C]
[G]Clinically dead for sixteen [D]hours
[Em]Crossing all the roads where lines bega[C]n
[G]Break my hourglass and [D]let the sands move in [Em]time              [C]

No tunn[G]el, no light
No dea[D]d love ones
[Em]Maybe I need to teach [C]someone
That we[G] won’t realize wh[D]at we have till we[Em] lose them…    [C]
That we[G] won’t realize wh[D]at we have till we[Em] lose them…    [C]
That we[G] won’t realize wh[D]at we have till we[Em] lose them…    [C]
       G                D                 Em       C   [RONDALLA-LIKE PART]
That we won't realize what we have till we lose them


----------------------------------------------------------------------------------


RONDALLA LIKE-PART:-

NOTE:-for every chord shown in here, stroke it alternately(quickly)

e]-3---2---2---4---7---10---8---7---3---2---2---2---0---[
B]-3---3---3---5---7---10---8---7---3---3---3---3---0---[
G]-0---2---3---5---8---11---9---8---0---2---3---2---0---[
D]-0---0---0------------------------0---0---0---0---0---[
A]------------------------------------------------------[
E]------------------------------------------------------[


another note*

1. The last chord before the chorus, which is D, must be sustained, then sturm
normally again in the chorus part.
2. The last line , which is the 4th time we repeat
"That we won't realize what we have till we lose them",
the words from the have is prolonged so you won't have to change your
strumming tempo.

that's all

enjoy!

Important: The song above is NOT stored on the Chordie server. The original song is hosted at www.guitaretab.com. Chordie works as a search engine and provides on-the-fly formatting. Chordie does not index songs against artists'/composers' will. To remove this song please click here.

Text color:
Chord color:
Chord grids: 
Font size:    
Page size: 

Am7 C D D7 Em G
variations - click chord images

Login - add to songbook

Transpose chords

Tuning

Rating click stars to rate

Layout
Accuracy

SHARE PAGE  




You need to log in to post comments