Guitar Tabs, Chords and Lyrics


Stay With Me2nyt  Misc. Unsigned Bands

      [E]        [B]        [C#]       [A]                                                                  
e|----0-------0-------0------0----------|
B|----0-------0-------0------0----------|
G|----9-------8-------6------6----------|
D|----9-------9-------6------7----------|
A|----7-------9-------4------7----------|
E|----x-------7-------x------5----------|


[E]There are moments that[B] I still remember
[C#]The days and nights th[A]at we are together
[E]Your eyes and your smi[B]le makes me feel better
[C#]So please girl be mine[A], now and forever!

Refrain:
C# A C# B pause
e|----0-------0-------0------0----------|
B|----0-------0-------0------0----------|
G|----6-------6-------6------4----------|
D|----6-------7-------6------4----------|
A|----4-------7-------4------2----------|
E|----x-------5-------x------x----------|


[C#]I don’t have the chance to[A] say what i feel
[C#]It’s time for me to let yo[B]u know…

Chorus:
      [E]        [B]        [C#]       [A]                                                                 
e|----0-------0-------0------0----------|
B|----0-------0-------0------0----------|
G|----9-------8-------6------6----------|
D|----9-------9-------6------7----------|
A|----7-------9-------4------7----------|
E|----x-------7-------x------5----------|


[E]You are the brightest [B]star I see in the night
[C#]In the morning you're [A]the sunshine that lights up my life
[E]I can do everything wi[B]th you by my side
[C#]Oh baby please, stay w[A]ith me... tonight!

Verse II:
[E]There are times that I[B] have been wasted
[C#]The chances that I cou[A]ld say
[E]That I really love you[B]
[C#]In just the way you ar[A]e

Repeat Refrain
Repeat Chorus 2x
Repeat Refrain
Repeat Chorus til fade


That's all please leave comment
call or text me @ +639052146573
or e-mail me @ savedsoul02@yahoo.com

thanks!

Important: The song above is NOT stored on the Chordie server. The original song is hosted at www.guitaretab.com. Chordie works as a search engine and provides on-the-fly formatting. Chordie does not index songs against artists'/composers' will. To remove this song please click here.

Text color:
Chord color:
Chord grids: 
Font size:    
Page size: 

A B C# E
variations - click chord images

Login - add to songbook

Transpose chords

Tuning

Rating click stars to rate

Layout
Accuracy

SHARE PAGE  




You need to log in to post comments