Guitar Tabs, Chords and Lyrics


Second Chances   Misc. Unsigned Bands



     Intro/verse (Clean)
|-------------------------------------|
|-------------------------------------|
|-------------------------------------|
|-----------333---------2-- 555-555---|
|--0h2h3----333----3h5------333-333---|
|-----------111-------------333-333---|


     Pre-chorus(Clean, not 100% sure)

Guitar 1
|-------------------------------------|
|-------------------------------------|
|------2------------------------------|
|----0---0---0-----3333--2222---------|
|------------------3333--2222---------|
|--2-------2-------1111--0000---------|

Guitar 2
|-------------5------5------------------3-------------|
|-----------5---5--------------------5---------5------|
|---------------------------------5---------5---------|
|--------7---------7-----------3----------2-------2---|
|-----------------------------------------------------|
|-----------------------------------------------------|


Chorus (clean)
|----------------------------------|
|----------------------------------|
|---------------5555---------------|
|-7777---3333---5555---5555--------|
|-5555---3333---3333---5555--------|
|-5555---1111----------3333--------|

Bridge (Haven't figured out first part yet, but heres the second part right before the solo)
|-----------------------------------------|
|-----------------------------------------|
|-------9--12------------9-9-9-9----------|
|-10-12-------10------------------12------|x2
|-----------------12-10-------------------|
|-----------------------------------------|






Solo

Guitar 1 (distorted)
|------------------------------------------------|
|------------------------------------------------|
|-------------------------------7----------------|
|-7\-[7-9-10-9-7-9-10-9]x2 7-9-10---10-9-7-------|x2 Play each note twice
|------------------------------------------1010--|   
|------------------------------------------------| 

Guitar 1 cont. (distorted)
|-------------------------------------|
|-------------------------------------|
|-------------------------------------|
|--10--9-----9--10--9--10--12--14-----|
|---------12--------------------------|
|-------------------------------------|

Guitar 2 (distorted
|-------------------------------------|
|-------------------------------------|
|---------------5555------------------|
|-7777---3333---5555---5555-----------|x2
|-7777---3333---3333---5555-----------|
|-5555---1111----------3333-----------|


ORDER:

intro/Verse
Pre-chorus
Chorus
Verse
Pre-chorus
Chrus
Pre-chorus
Bridge
Solo
Chorus




Important: The song above is NOT stored on the Chordie server. The original song is hosted at www.guitaretab.com. Chordie works as a search engine and provides on-the-fly formatting. Chordie does not index songs against artists'/composers' will. To remove this song please click here.

This song is displayed as text-only. Transposing and tuning is only available for chordpro-songs.

Login - add to songbook

Rating click stars to rate

Layout
Accuracy

SHARE PAGE  




You need to log in to post comments