Guitar Tabs, Chords and Lyrics


Warkah  Misc. Unsigned Bands

   [C]    [G]    [Am]   [Em]                                                                         
e|---|---|---|---|
B|-1-|-3-|-1-|-1-|
G|-0-|-0-|-2-|-0-|
D|-2-|-0-|-2-|-2-|
A|-3-|-2-|---|-2-|
E|---|-3-|---|-0-|


Intro:

C G Am Em ring
e|--------------------------------------------0--|
B|-1--1-3--1-0--0-3---0-1---1-3---1--0----0-3---3|
G|------------------0----------------------------| X 2
D|---2----2----0----------2----0--------2--------|
A|-3--------------------0------------2-----------|
E|-----------3-----------------------------------|


verse:

[C]Takkan lagi aku menu[G]nggu
Kau [Am]hadir di dalam [Em]mimpi-mimpiku
[C]Puasku mengharapkan di[G]rimu
Sepe[Am]rti mereka yang punya[Em] cinta

[C]Diriku tanpa dir[G]imu
Kau [Am]tempuhi penuh baha[Em]gia
[C]Diriku mahu kau t[G]ahu
Ped[Am]ih ini kau tak ter[Em]asa
[C]Warkahku mengharapkan d[G]irimu
Sepert[Am]i yang aku kenali du[Em]lu
[C]Setiaku menantikan diri[G]mu
Seper[Am]ti setianya terhadap dir[Em]iku
[C]Tapiku melepaskan[G] mu
Melangk[Am]ah namun tak berda[Em]ya
[C]Terusku terus menun[G]ggu
Cinta [Am]yang takkan pernah [Em]ada
Chord and tabbed by: badOn :)

Important: The song above is NOT stored on the Chordie server. The original song is hosted at www.guitaretab.com. Chordie works as a search engine and provides on-the-fly formatting. Chordie does not index songs against artists'/composers' will. To remove this song please click here.

Text color:
Chord color:
Chord grids: 
Font size:    
Page size: 

Am C Em G
variations - click chord images

Login - add to songbook

Transpose chords

Tuning

Rating click stars to rate

Layout
Accuracy

SHARE PAGE  




You need to log in to post comments