Guitar Tabs, Chords and Lyrics


Whispers In Shadows   Misc. Unsigned Bands



Tune-Drop C
Artist-Descending Beneath
Album-Denying the Existence of Life
Song-Whispers in Shadows

This song is mostly keyboard but with a drum and guitar entrance at the end
after a slow drum roll for 10 seconds guitars come in

(guitar 1)
--------------------------------------------------------|
1-0-----------------------------------------------------|
----1-0-------------------------------------------------|
--------1-0-----------------33-4-5-4--------------------|
------------1-0-1111-3-3h4b----------3-1111-0========---|
--------------------------------------------0========---|

(guitar 2)
--------------------------------------------------------|
--------------------------------------------------------|
--------------------------------------------------------|
----------------1111------------------------------------|
1-0-1-0-1-0-1-0-1111-5-5----55-6-7-6-5-1111-0========---|


Important: The song above is NOT stored on the Chordie server. The original song is hosted at www.guitaretab.com. Chordie works as a search engine and provides on-the-fly formatting. Chordie does not index songs against artists'/composers' will. To remove this song please click here.

This song is displayed as text-only. Transposing and tuning is only available for chordpro-songs.

Login - add to songbook

Rating click stars to rate

Layout
Accuracy

SHARE PAGE  




You need to log in to post comments