Guitar Tabs, Chords and Lyrics


Welcome To The Black Parade   Misc. Unsigned Bands



My Chemical Romance: welcome to the black parade
Death In Writing: metal cover

Drop D tuning


e-------------------------------------|
b-------------------------------------|
g-------------------------------------|
D-12--11--15--9--5--9--3--2--7--------|
A-12--11--15--9--5--9--3--2--7--------|
D-12--11--15--9--5--9--3--2--7--------|


Palm Mute through out song
each bar hold 8 times
for example D---12x8---11x8


e-------------------------------------|
b-------------------------------------|
g-------------------------------------|
D-12--11--15--9--5--9--3--2--7--------|
A-12--11--15--9--5--9--3--2--7--------|


Important: The song above is NOT stored on the Chordie server. The original song is hosted at www.guitaretab.com. Chordie works as a search engine and provides on-the-fly formatting. Chordie does not index songs against artists'/composers' will. To remove this song please click here.

This song is displayed as text-only. Transposing and tuning is only available for chordpro-songs.

Login - add to songbook

Rating click stars to rate

Layout
Accuracy

SHARE PAGE  




You need to log in to post comments