Guitar Tabs, Chords and Lyrics


Through Me On The Road   Misc. Unsigned Bands



Through me on the road by Digitaliiz 
WITH LYRICS!

|------------------------------------|
|------------------------------------|
|------------------------------------|
|------------------------------------|
|-9-9-9-9-9-9-9-9-7--7-7-7-7-7-7-7-7-|
|-9-9-9-9-9-9-9-9-7--7-7-7-7-7-7-7-7-|

|------------------------------------|
|------------------------------------|
|------------------------------------| x2
|------------------------------------|
|-9-9-9-9-9-9-9-9-7--7-7-7-7-7-7-7-7-|
|-9-9-9-9-9-9-9-9-7--7-7-7-7-7-7-7-7-|
#cutline#
#cutline#

|------------------------------------|
|------------------------------------|
|------------------------------------|
|----------------------------(5)-(5)-|
|-9-9-9-9-9-9-9-7-7-7-7-7-7-7-5-5-5-5|
|------------------------------------|
Oh yeah. Alright.

|-------------------------------|
|-------------------------------|
|-------------------------------|
|-------------------------------|
|-9-9-9-9-9-9-9-9-9-9-9-9-9-9-9-|
|-9-9-9-9-9-9-9-9-9-9-9-9-9-9-9-|

 let ring-------------|
|-----------------------5-5-5-5-|
|-----------------------6-6-6-6-|
|-----------------------7-7-7-7-|
|-1-1-1-1-1-1-1-1-1-1-1---------|
|-1-1-1-1-1-1-1-1-1-1-1---------|
|-------------------------------|

Chours
|-7-7--5-5-5--2-2--2-2-2--------|
|-8-8--6-6-6--3-3--3-3-3--------|
|-9-9--7-7-7--4-4--4-4-4--------|
|-------------------------------|
|-------------------------------| x3
|-------------------------------|
#cutline#
#cutline#
#cutline#

|-7-7-7-7-7-7-7---7-7-7---------|
|-8-8-8-8-8-8-8---8-8-8---------|
|-9-9-9-9-9-9-9---9-9-9---------|
|-------------------------------|
|-------------------------------|
|-------------------------------|

Outro
|-7-77-777-5-55-555-xxx-22-2-2-2-22-2-2-2-|
|-8-88-888-6-66-666-xxx-33-3-3-3-33-3-3-3-|
|-9-99-999-7-77-777-xxx-44-4-4-4-44-4-4-4-|
|-----------------------------------------|
|-----------------------------------------|
|-----------------------------------------|
                      Gonna walk in time...

Last note
|-7-------|
|-8-------|
|-9-------| (slowly strum)
|-9-------|
|-7-------|
|-7-------|

k hope you like this took a while



Important: The song above is NOT stored on the Chordie server. The original song is hosted at www.guitaretab.com. Chordie works as a search engine and provides on-the-fly formatting. Chordie does not index songs against artists'/composers' will. To remove this song please click here.

This song is displayed as text-only. Transposing and tuning is only available for chordpro-songs.

Login - add to songbook

Rating click stars to rate

Layout
Accuracy

SHARE PAGE  




You need to log in to post comments