Guitar Tabs, Chords and Lyrics


The Reason Why  Misc. Unsigned Bands

e|-------3--------------2-------------0-----------2------------------------|


B|-----------0-------------3-------------1------------3--------------------|


G|-----0---0---0------2--2---2------0--0---0----2---2---2------------------|

D|------------------0-------------------------0----------------------------|
A|--------------------------------3-----------------------0----------------|
E|--3----------------------------------------------------------------------|
[G]  Your happy face, your smile,  is a[D]ll I see
[C]  Your voice keeps singing out so, s[D]o beautifully
[G]  You mean the world to me
[D]  And deep inside...
[C]  I hope you’ll always know that
[D]  You’re the reason why...
Chorus
  I la[G]ugh, I c[D]ry
[C]  I’ll tell you [G]why...
  It’s [D]you---

Riff #1 (Play Twice)

(hold G) D C D
e|-------3--------------2-------------0-----------2------------------------|
B|-----------0-------------3-------------1------------3--------------------|
G|-----0---0---0------2--2---2------0--0---0----2---2---2------------------|
D|------------------0-------------------------0----------------------------|
A|--------------------------------3-----------------------0----------------|
E|--3----------------------------------------------------------------------|


2nd Verse
[G]  So life keeps passing by, tom[D]orrow’s now today,
[C]  And when this life is done,
  I k[D]now that we can say...

Chorus #2
  We la[G]ughed, we cr[D]ied
[C]  We smiled w[G]ide,
[C]  And if you ask me why
  I’ll [D]say that it’s because...
3rd verse (Strum once + let ring)
[G]  You’re always there for me, you
[D]  Never tell a lie
[C]  You never try to hide
[D]  Who you are inside...

(Original Strum) C D

Chorus #3
  I la[G]ugh, I c[D]ry
[C]  I’ll tell you w[G]hy...
  It’s y[D]ou---
[C]  You're the reason w[D]hy...

  I l[G]augh, I c[D]ry
[C]  I’ll tell you w[G]hy...
  It’s y[D]ou---      [C]
[D]  You’re the reason w[G]hy.

Important: The song above is NOT stored on the Chordie server. The original song is hosted at www.guitaretab.com. Chordie works as a search engine and provides on-the-fly formatting. Chordie does not index songs against artists'/composers' will. To remove this song please click here.

Text color:
Chord color:
Chord grids: 
Font size:    
Page size: 

C D G
variations - click chord images

Login - add to songbook

Transpose chords

Tuning

Rating click stars to rate

Layout
Accuracy

SHARE PAGE  




You need to log in to post comments