Guitar Tabs, Chords and Lyrics


Sons Of Anarchy Improvisational   Misc. Unsigned Bands



Son of Anarchy
jackson20n8
youtube.com/jackson20n8
 Rhythm Figure 1
   PM-|                            PM-|
|-----------------------------------------------|
|---------7^8^7-----------------7^8^7-----------|
|--------------------9---------------------7~~--|                     x2
|--9-9-------------------9-9--------------------|
|-----------------------------------------------|
|-----------------------------------------------|
Rhythm Figure 1A
   PM-|                             PM-|
|---------------------------------------------------------------------|
|---------7^8^7-----------------7^8^7---------------------------------|
|-------------------9----------------------7~-------------------------|    x2
|-7-7---------------------7-7-----------------------------------------|
|---------------------------------------------------------------------|
|---------------------------------------------------------------------|

Rhythm Figure 1

And for the rest of the song improvise with these notes
|--10-7-5-2-0---------------------------------------------------------------------|
|------------------10-7-5-3-0-----------------------------------------------------|
|---------------------------------9-7-4-2-----------------------------------------|
|-------------------------------------------9-7-4-2-------------------------------|
|-----------------------------------------------------9-7-5-2-0-------------------|
|---------------------------------------------------------------------10-7-5-3-0--|


So it goes
Rhythm Figure 1 (x2)
Rhythm Figure 1A (x2)
Improvisation (2:30)
Rhythm Figure 1 (x2)
Rhythm Figure 1A (x2)
Rhythm Figure 1 (x1)
Outro Chords (x1)


Outro Chords
B F# G# E B


Tuning: Eb (Eb Db Ab Gb Bb Eb)
Tab Key:
^ : pulloff or hammer on
x : dead note
7^8^7 : quick hamer on then pulloff


Have fun playing!


Important: The song above is NOT stored on the Chordie server. The original song is hosted at www.guitaretab.com. Chordie works as a search engine and provides on-the-fly formatting. Chordie does not index songs against artists'/composers' will. To remove this song please click here.

This song is displayed as text-only. Transposing and tuning is only available for chordpro-songs.

Login - add to songbook

Rating click stars to rate

Layout
Accuracy

SHARE PAGE  




You need to log in to post comments