Guitar Tabs, Chords and Lyrics


Finish Him   Misc. Unsigned Bands



Belie My Burial
Finish Him from the Demo. This is the official version not the recorded one.
Drop C tuning

* - palm mute
ph - pinch harmonic
~ - ring out
t - tap
T - Tremelo

|------------------------------|
|------------------------------|
|------------------------------|
|--------------------------3-2-|
|55-88-77-44--55-88-77-44--3-2-|
|--------------------------3-2-|
                           * *


|--------------------------------------------------------------|
|--------------------------------------------------------------|
|----------------------------------------------------------ph7-|
|3-000-000-000--3-000-000-----------000-000-000--3/--7-5h7-----|
|5-000-000-000--5-000-000--5-8-7-4--000-000-000----------------|
|--000-000-000----000-000-----------000-000-000----------------|
   *** *** ***    *** ***           *** *** ***


|---------------------------------------------------------------|
|---------------------------------------------------------------|
|---------------------------------------------------------------|
|3-000-000-000--3-000-000-----------000-000-000-----------------|
|5-000-000-000--5-000-000--5-8-7-4--000-000-000----5-4----8-7---|
|--000-000-000----000-000-----------000-000-000--0-----0------8-| 2 times
   *** *** ***    *** ***           *** *** ***  *     *  * * 


|
|-------------------------------------------------------|
|-------------------------------------------------------|
|--00---00---0---00---00---0---00---00---0--------------|
|--11---11---1---11---11---1---11---11---1-000-000--ph5-|
|0----0----0---0----0----0---0----0----0---000-000------|
 *    *    *   *    *    *   *    *    *   *** ***

                         (...white lights...)
|----------------------|
|----------------------|
|----------------------|
|000-000-00-00-000-000-|
|000-000-00-00-000-000-|
|000-000-00-00-000-000-| 4 times 


|-------|
|-------|
|-------|
|12///--|
|12///--|
|12///--|



|--------------------------------------------------------------|
|--------------------------------------------------------------|
|----------------------------------------------------------ph7-|
|3-000-000-000--3-000-000-----------000-000-000--3/--7-5h7-----|
|5-000-000-000--5-000-000--5-8-7-4--000-000-000----------------|
|--000-000-000----000-000-----------000-000-000----------------|
   *** *** ***    *** ***           *** *** ***



|---------------------------------------------------------------|
|---------------------------------------------------------------|
|---------------------------------------------------------------|
|3-000-000-000--3-000-000-----------000-000-000-----------------|
|5-000-000-000--5-000-000--5-8-7-4--000-000-000----5-4----8-7---|
|--000-000-000----000-000-----------000-000-000--0-----0------8-| 2 times
   *** *** ***    *** ***           *** *** ***  *     *  * * 


|-----------------------------------------|
|-----------------------------------------|
|-----------------------------------------|
|1~--0~--1~---0~---1~---0~---1~---0--000--|
|1~--0~--1~---0~---1~---0~---1~---0--000--|
|1~--0~--1~---0~---1~---0~---1~---0--000--|
 *   *   *    *    *    *    *       ***

|----------------------------|
|----------------------------|
|----------------------------|
|3--2--5--7--000-000-0-00-00-|
|5--4--7--8--000-000-0-00-00-|
|------------000-000-0-00-00-| 4 times


|-------------------------------|
|-------------------------------|
|-------------------------------|
|3-2h3p2-2------000-000-0-00-00-|
|----------3-5--000-000-0-00-00-|
|---------------000-000-0-00-00-|4 times


|-------------|
|-------------|
|-------------|
|0-~-0~-0~-0~-|
|0-~-0~-0~-0~-|
|0-~-0~-0~-0~-|

Tapping part just keeps repeating.
|------------------|
|------------------|
|------------------|
|------------------|
|5-t8--5-t7--5-t10-|
|------------------|
8x's   4x's   4x's



|-----------------|
|-----------------|
|-----------------|
|0~---8~--00------|
|0~---8~--00--ph3-|
|0~---8~--00------|

                       (white lights...)
|----------------------|
|----------------------|
|----------------------|
|000-000-00-00-000-000-|
|000-000-00-00-000-000-|
|000-000-00-00-000-000-| 4 times 



|--------------|
|--------------|
|--------------|
|--------------|
|5-4-7-5-------|
|---------ph3~-|
 T T T T



|----------------------|
|----------------------|
|----------------------|
|000-000-00-00-000-000-|
|000-000-00-00-000-000-| last time ends with a slide down.
|000-000-00-00-000-000-|



Important: The song above is NOT stored on the Chordie server. The original song is hosted at www.guitaretab.com. Chordie works as a search engine and provides on-the-fly formatting. Chordie does not index songs against artists'/composers' will. To remove this song please click here.

This song is displayed as text-only. Transposing and tuning is only available for chordpro-songs.

Login - add to songbook

Rating click stars to rate

Layout
Accuracy

SHARE PAGE  




You need to log in to post comments