Guitar Tabs, Chords and Lyrics


Black Hole Brain   Misc. Unsigned Bands



Intro/Verse
Guitar 1
---------------------------------------------------|
---------------------------------------------------|
---------------------------------------------------|
-------------------9/12----------------------9/5---|
-------9-----8-----7/10----------9-----8-----7/3---|
-0-0-0---0-0---0-0---------0-0-0---0-0---0-0-------|

-----------------------------------|
-----------------------------------|
-----------------------------------|
-----------------------------------|
-------9-----8-----9-----8~~-7~~---|
-0-0-0---0-0---0-0---0-0-----------|

Guitar 2
----------------------------------------------------|
----------------------------------------------------|
----------------------------------------------------|
----------------------------------------------------|
-------17----16-----14/17--------17----16-----16/14-|
-0-0-0---0-0---0-0---------0-0-0---0-0----0-0-------|

-----------------------------------|
-----------------------------------|
-----------------------------------|
-----------------------------------|
------17-----16----17----16~~-14~~-|
-0-0-0---0-0---0-0---0-0-----------|


Pre-Chorus
Guitars 1 and 2

----------------------------------|
----------------------------------|
-9--------11----------------------|
-9--------11-------10-------9-----|
-7--------9--------10-------9-----|
-------------------8--------7-----|

-----------------------------------------------|
-----------------------------------------------|
-9-----9-----11-----11-------------------------|
-9-----9-----11-----11-10----10----9-----9-----|
-7-7-7-7-7-7-9--9-9-9--10----10----9-----9-----|
-----------------------8-8-8-8-8-8-7-7-7-7-7-7-|

Chorus
Guitars 1 and 2                          1,2,3rd endings 4st ending
-----------------------------------------]-------------]-------------]
-----------------------------------------]-------------]-------------]
-----------------------------------------]-------------]-------------]
-----------------------------------------]-12-11-11-12-]-12-11-11-12-]
-----------------------------------------]-10-9--9--10-]-10-9--9--10-]
-7-7-7--7-7-7--7-7-7--7-7-7--7-7-7--7-7-7]-------------]-------------]
-0-0-0--0-0-0--0-0-0--0-0-0--0-0-0--0-0-0]-------------]-------------]

Then...
Verse
Pre-chorus
Chorus

Guitar solo (Guitar 2 plays chorus)
-------------------------------------------------18b--18-20-22-22b-|
-----------------------------------------17h19h21------------------|
-15b-15b-15b--------------------15h17h19---------------------------|
-------------18-16-14--14h16h18------------------------------------|
-------------------------------------------------------------------|
-------------------------------------------------------------------|

 trill  trill
-22t18--18t20--18-/18-20-22-22b---22p20p18---------22p20p18---------|
-------------------------------------------21p19p17--------21p19p17-|
--------------------------------------------------------------------|
--------------------------------------------------------------------|
--------------------------------------------------------------------|
--------------------------------------------------------------------|

-----------------------|
----17-----------------|
-19----19-17-----------|
-------------19~~~~----|
-----------------------|
-----------------------|

Then...
Pre-Chorus
Chorus



Important: The song above is NOT stored on the Chordie server. The original song is hosted at www.guitaretab.com. Chordie works as a search engine and provides on-the-fly formatting. Chordie does not index songs against artists'/composers' will. To remove this song please click here.

This song is displayed as text-only. Transposing and tuning is only available for chordpro-songs.

Login - add to songbook

Rating click stars to rate

Layout
Accuracy

SHARE PAGE  




You need to log in to post comments