Guitar Tabs, Chords and Lyrics


Let It Rock   Misc. Unsigned Bands



My First Tab.

The Song Is Pretty Easy And This Sounds Correct.

Standard Tuning (EADGBe)

Intro On Synth(Played Throughout):

e|---------0---0-1---------1---1-0---------0---0-1---------0------|
B|---3-3-------------3-3-------------3-3-------------3-3-----3----|
G|-2-----2---2-----2-----2---2-----2-----2---2-----2-----2--------|
D|----------------------------------------------------------------|
A|----------------------------------------------------------------|
E|----------------------------------------------------------------|


Verse 2x (I See Your Dirty Face. . . .)

e|----------------------------------------------------------------|
B|----------------------------------------------------------------|
G|------------------7-7-7-7-7-7-7-7-------------------------------|
D|-3-3-3-3-5-5-5-5--7-7-7-7-7-7-7-7--(2x)-------------------------|
A|-3-3-3-3-5-5-5-5--5-5-5-5-5-5-5-5-------------------------------|
E|-1-1-1-1-3-3-3-3------------------------------------------------|

e|----------------------------------------------------------------|
B|----------------------------------------------------------------|
G|------------------7-7-7-7-7-7-7-7-------------------------------|
D|-8-8-8-8-5-5-5-5--7-7-7-7-7-7-7-7--(2x)-------------------------|
A|-8-8-8-8-5-5-5-5--5-5-5-5-5-5-5-5-------------------------------|
E|-6-6-6-6-3-3-3-3------------------------------------------------|


Chorus

e|----------------------------------------------------------------|
B|----------------------------------------------------------------|
G|---------5-5-5---7~-7-7-7-7-7-7-7-------------------------------|
D|-3-3-3-3-5-5-5---7~-7-7-7-7-7-7-7-------------------------------|
A|-3-3-3-3-3-3-3---5~-5-5-5-5-5-5-5-------------------------------|
E|-1-1-1-1--------------------------------------------------------|

e|----------------------------------------------------------------|
B|----------------------------------------------------------------|
G|-----------------7~-7-7-7-7-7-7-7-------------------------------|
D|-8-8-8-8-5-5-5---7~-7-7-7-7-7-7-7-------------------------------|
A|-8-8-8-8-5-5-5---5~-5-5-5-5-5-5-5-------------------------------|
E|-6-6-6-6-3-3-3--------------------------------------------------|

Verse 2x

Chorus

Verse 4x (When Lil Wayne Is Rapping)

I Would Tab The Solo But It 'Does Not Exist' In Some Cases. One Day I'll Get It. :/

After Solo Just Repeat The Intro.


That's It For Now!

Input Is Appreciated Thanks.


Important: The song above is NOT stored on the Chordie server. The original song is hosted at www.guitaretab.com. Chordie works as a search engine and provides on-the-fly formatting. Chordie does not index songs against artists'/composers' will. To remove this song please click here.

This song is displayed as text-only. Transposing and tuning is only available for chordpro-songs.

Login - add to songbook

Rating click stars to rate

Layout
Accuracy

SHARE PAGE  




You need to log in to post comments