Guitar Tabs, Chords and Lyrics


Spookin The Horses  Misc. Unsigned Bands

You're spookin' the ho[Em]rses, they're wild and they're sca[G]red
With that bright coloured ma[Em]keup and those clothes that you we[G-G7]ar.
And I seen you dan[C]cing last night 'neath the t[Em]rees.
You're spookin' the ho[G]rses,[D] and you're scaring[G-C-G] me.


Where the road meets the[Em] highway, those bright city l[G]ights,
Must have shone though your win[Em]dshield and got into your e[G-G7]yes.
And I bet you tho[C]ught that they'd set you f[Em]ree.
You're spookin' the ho[G]rses,[D] and you're scaring[G-C-G7] me.
You're not tying your h[C]air back any[G]more,
And you're wearing dre[D]sses like you never b[G]ef[-]or[G7]e.
And you're driving fa[C]ster than I've ever s[Em]een.
You're spookin' the hor[G]ses,[D] and you're scaring[G-C-G] me.
Solo:

e|--------7-10--------------------------------------7-10----------------------------------------|
B|-----/8------10b-10br/8-----10br8-10b-10b-r---/8-------10b-10br/8---10br8-10b-10br-10b-8------|
G|-----------------------------------------------------------------------------------------10---|
D|----------------------------------------------------------------------------------------------|
A|----------------------------------------------------------------------------------------------|
E|----------------------------------------------------------------------------------------------|
e|-------------------------------------------10-----------------------------------------15------|
B|--3/5--5p3-----5/8----8-7----------------12----10b-10br-8----------10br--/8-/8---/12----------|
G|--3/5-----5----5/8--------9p7-7p5-4---/12------------------9br-7------------------------------|
D|----------------------------------------------------------------------------------------------|
A|----------------------------------------------------------------------------------------------|
E|----------------------------------------------------------------------------------------------|



I can hear the gears gri[Em]nding, where you make the t[G]urn,
And up on the sky[Em]line, those headlights just [G-G7]burn.
And the horses go run[C]ning, and my heart just scr[Em]eams.
You're spookin' the ho[G]rses,[D] and you're scaring[G-C-G] me.
You're spookin' the ho[G]rses,[D] and you're scaring[G-C-G] me.

Important: The song above is NOT stored on the Chordie server. The original song is hosted at www.guitaretab.com. Chordie works as a search engine and provides on-the-fly formatting. Chordie does not index songs against artists'/composers' will. To remove this song please click here.

Text color:
Chord color:
Chord grids: 
Font size:    
Page size: 

C D Em G G7
variations - click chord images

Login - add to songbook

Transpose chords

Tuning

Rating click stars to rate

Layout
Accuracy

SHARE PAGE  




You need to log in to post comments

gypsywitch (report)

This is a FRED EAGLESMITH song, covered by many bands.