Guitar Tabs, Chords and Lyrics


Self Inflicted I Am Human   Misc. Unsigned Bands



hey, this is a song i wrote about 3 years ago,
its pretty straight foreward and meaningful to me
i guess i should put the lyrics up to but they kinda suck
anyway enjoy il tab the rest of my materiel soon
any questions on how the track is played email me
shane_qs@hotmail.com
by the way this is copyrighted and recorded so no stealing bitches!


lead guitar  intro/verse
e-----------------------------------------------------------------------|
a-----------------------------------------------------------------------|
d-----------------------------------------------------------------------|
g-2---2---2---2---------------------------------------------------------|
b--1-1-1-1-1-1----x5----------------------------------------------------|
e---3---3---3-----------------------------------------------------------|

e-----------------------------------------------------------------------|
a-----------------------------------------------------------------------|
d-3---3---3--3----------------------------------------------------------|
g-----------------------------------------------------------------------|
b--1-1-1-1--1-----------------------------------------------------------|
e---3---3--3------------------------------------------------------------|
rythm guitar
e-----------------------------------------------------------------------|
a-----------------------------------------------------------------------|
d-----------------------------------------------------------------------|
g-2-2-2-2---------------------------------------------------------------|
b-1-1-1-1---------------------------------------------------------------|
e-3-3-3-3---------------------------------------------------------------|

chorus
e-------------------0-0-0-0-0-0-0-0-----------------------------------------|
a-3--3-3-3-3-3-3-3--2-2-2-2-2-2-2-2--0-0-0-0-0-0-0-0------------------------|
d-2--2-2-2-2-2-2-2--2-2-2-2-2-2-2-2--2-2-2-2-2-2-2-2------------------------|
g-0--0-0-0-0-0-0-0--0-0-0-0-0-0-0-0--2-2-2-2-2-2-2-2------------------------|
b-1--1-1-1-1-1-1-1--1-1-1-1-1-1-1-1--1-1-1-1-1-1-1-1----------x 4-----------|
e-3--3-3-3-3-3-3-3--3-3-3-3-3-3-3-3--3-3-3-3-3-3-3-3------------------------|
  d  d u u d d d u
rythm pattern

bridge (slow and steady)
e-------------------------------------------------------------------|
a-1/3-3-----5-3-3-3/------------------------------------------------|
d------3h5p3------5/p3-x6-------------------------------------------|
g-------------------------------------------------------------------|
b-------------------------------------------------------------------|
e-------------------------------------------------------------------|

lyrics

verse

i am here, where ive always been
i have have seen i have been i have no regrets
living dreams living dreams come to me
i have been i have been to that place i go
livin dreams livin dreams with you self inflicted self inflicted

chorus
where we'll be know one knows
on our own on our own in our own
i cant see the colour in your eyes
i am no longer here with you with you
where i'll be where i'll be know one knows
livin dreams self inflicted self inflicted

verse 2
waking up waking up
its so hard to get up get up
its hard to cope this life
with these wounds re-open again
self inflicted self inflicted
i went home to an empty home
this life this life isnt all self inflicted self inflicted
no no..

chorus x 2
where we'll be know one knows
on our own on our own in our own
i cant see the colour in your eyes
i am no longer here with you with you
where i'll be where i'll be know one knows
livin dreams self inflicted self inflicted

verse 3
i have taken i have broken i have hurt
i have needs i am human i have needs
i have urges i have urges i have you
i am human i am human i am all i can be
i am self inflicted self inflicted lord this cant be
i am human i am me i am everything i didnt want to be

chorus
where we'll be know one knows
on our own on our own in our own
i cant see the colour in your eyes
i am no longer here with you with you
where i'll be where i'll be know one knows
livin dreams self inflicted self inflicted

bridge
and here we are in our dreams red water blue skys for me
we can be at peace in our dreams let live and die in our dreams
i am self inflicted on my self i am me
i am me you are you thats all we can be for now for now we are only human we bleed and 
feel and we just cant heal
after break up all we want to do is
make up i am me i am self inflicted i am


Important: The song above is NOT stored on the Chordie server. The original song is hosted at www.guitaretab.com. Chordie works as a search engine and provides on-the-fly formatting. Chordie does not index songs against artists'/composers' will. To remove this song please click here.

This song is displayed as text-only. Transposing and tuning is only available for chordpro-songs.

Login - add to songbook

Rating click stars to rate

Layout
Accuracy

SHARE PAGE  




You need to log in to post comments