Guitar Tabs, Chords and Lyrics


Rock N Roll Soul   Misc. Unsigned Bands



b=bend v=vibrato

intro x4 and Rhythm over solo also x4
e------------------|
b------------------|
g------------------|
d--99999999--------|
a--77777777-9-97-7-|
e-----------7-75-5-|

verse x6
e------------------|
b------------------|
g------------------|
d--999---------7-7-|
a--777-999-777-5-5-|
e------777-555-----|

chorus x2 *let ring
e--------------------|
b--------------------|
g--------------------|
d--9*--11-9-7*-6-4---|
a--7----9-7-5--4-2---|
e--------------------|

solo
e--------12-----12-----12-----12-------------------------------------|
b------12-----12-----12-----12---------------------------------------|
g----14b----14b----14b----14b---14b-14-12---12vvvv------12--------12-|
d-----------------------------------------14-------12h14--14p12h14---|
a--------------------------------------------------------------------|
e--------------------------------------------------------------------|

e----------------------------------12-15-14-12---12--------------------------|
b------------------------------15b-------------15--15-14-12----12------------|
g----------12--------12--14v--------------------------------14----14-12------|
d--14p12h14--14p12h14---------------------------------------------------14vv-|
a----------------------------------------------------------------------------|
e----------------------------------------------------------------------------|

e-----------------------------------------------12h13h15-12h13h15-12h13h15--|
b--------------------------------------12h13h15-----------------------------|
g-----------------------------12h13h15--------------------------------------|
d--------------------12h13h15-----------------------------------------------|
a-----------12h13h15--------------------------------------------------------|
e--12h13h15-----------------------------------------------------------------|

e-12h13h15b---------|
b-------------------|
g-------------------|
d-------------------|
a-------------------|
e-------------------|

thats it the song goes
intro x4
verse x6
chorus x2
verse x6
chorus x2
solo (intro)x4
chorus x4
verse x2
intro x2


Important: The song above is NOT stored on the Chordie server. The original song is hosted at www.guitaretab.com. Chordie works as a search engine and provides on-the-fly formatting. Chordie does not index songs against artists'/composers' will. To remove this song please click here.

This song is displayed as text-only. Transposing and tuning is only available for chordpro-songs.

Login - add to songbook

Rating click stars to rate

Layout
Accuracy

SHARE PAGE  




You need to log in to post comments