Guitar Tabs, Chords and Lyrics


City Walls  Misc. Unsigned Bands

[-----]Played with Capo on 3rd fret!!!
[-----]                                     
Chorus Chords:
G     - 3-2-0-0-3-3-|
Dsus4 - 0-0-0-2-3-3-|
Em7   - 0-2-2-0-3-3-|
Csus2 - 0-3-2-0-3-3-|



Pre-Chorus Chords:
Em7+D+G - 0-2-0-0-3-3


Intro (Guitar 2)
|-----------------PLAY-UNTIL-PRE-CHORUS---------------|
|--------------0-0-----0---|--------------0-0------0--|
|-----3--------3-3-----3---|-----0--------0-0------0--|
|-----0--------------------|-----0--------------------|
|--------------------------|--------------------------|
|-3---------3------3-------|-2---------2------2-------|
|--------------------------|--------------------------|


Pre-Verse picking (Guitar 1)

|------------------------------------COME IN WHEN INTRO IS PLAYED 3RD TIME-----------------|
|-3------3------5-----5----|-3------3------2-----2----|-3------3------2-----2----|------------|
|-----5-----5-----5-----5--|-----5-----5-----5-----5--|-----5-----5-----5-----5--|-----3--5---|
|--------------------------|--------------------------|--------------------------|------------|
|--------------------------|--------------------------|--------------------------|------------|
|--------------------------|--------------------------|--------------------------|------------|
|--------------------------|--------------------------|--------------------------|------------|



FIRST VERSE:
(Guitar 2 play Intro throughout)
[--]                                     
I Never wanted to Ignore,

All those things, outside those city walls,

A brand new world of opportunity just had to be explored,

So I moved on to find out what the future holds...

PRE-CHORUS:
(Guitar 1)
And [Csus2]I know, [Em7+D+G]Its not easy,

Saying g[Csus2]oodbye to[Em7+D+G] those beaches,

The [Csus2]ocean and a [Em7+D+G]beautiful setting sun,
Its [Csus2]no matter, of g[Em7+D+G]rasping greed,
Or a [Csus2]reflection of ([Em7+D+G]egoistic me??),
I just [Csus2]need it to try [Em7+D+G]this all at once...   [Em]       [G]
CHORUS 1:
(Guitar 1)
Between a [G]Rock [Dsus4]and a [Em7]city[Csus4],

And i've [G]Got t[Dsus4]o make[Em7] it [Csus4]on my own,

Try it [G]out, try it a[Dsus4]ll, keep it c[B7]lose bla bla o[Em7]oh,
Until I figure it out,

(Guitar 1 Play Intro)
At least I know but for now I say goodbye,

For now I say goodbye,

For now I say goodbye...


Second Verse:

[G]I'd t[Dsus4]ake it[Em7] all[Csus4] in a stride,

[G]I kno[Dsus4]w thes[Em7]e th[Csus4]ings no they dont happen over night,
[G]I'm s[Dsus4]till s[Em7]leep[Csus4]ing on a couch and so many people have their doubts,
[G]I wil[Dsus4]l rise[Em7] abo[Csus4]ve it all and touch the sky,
-------------------

(GUITAR 1)
"So many people have their doubts..."
Effective BASS Line (Effective For a guitar with Capo):

|--------------------------|
|--------------------------|
|--------------------------|
|--------------------------|
|--------------------------|
|----3---2----0------------|


Without Capo:
|--------------------------|
|--------------------------|
|--------------------------|
|--------------------------|
|--------------------------|
|----6---5----3------------|
-------------------



PRE-CHORUS:
(Guitar 1)
And [Csus2]I know, [Em7+D+G]Its not easy,

Saying g[Csus2]oodbye to[Em7+D+G] those beaches,

The [Csus2]ocean and a [Em7+D+G]beautiful setting sun,
Its [Csus2]no matter, of g[Em7+D+G]rasping greed,
Or a [Csus2]reflection of ([Em7+D+G]egoistic me??),
I just [Csus2]need it to try [Em7+D+G]this all at once...   [Em]       [G]
CHORUS 2:
(Guitar 1)
Between a [G]Rock [Dsus4]and a [Em7]city[Csus4],

And i'll [G]breath [Dsus4]above the [Em7]water on my [Csus4]own,

Try it [G]out, try it [Dsus4]all, keep it [B7]close bla bla [Em7]ooh,
Oh where you [G]been, Oh you so [Dsus]thin, I've been w[B7]orking off my socks not going to the [Em7]gym,
Until I figure out,

At least I know,

Yeah until I figure out,
(Guitar 1 Play Intro)
but for now I say goodbye

For now I say goodbye,

For now I say goodbye...


(ooooh oooh oooh)x8 Bars

PRE-CHORUS:
(Guitar 1)
And [Csus2]I know, [Em7+D+G]Its not easy,

Saying g[Csus2]oodbye to[Em7+D+G] those beaches,

The [Csus2]ocean and a [Em7+D+G]beautiful setting sun,
Its [Csus2]no matter, of g[Em7+D+G]rasping greed,
Or a [Csus2]reflection of ([Em7+D+G]egoistic me??),
I just [Csus2]need it to try [Em7+D+G]this all at once...   [Em]       [G]
CHORUS 3:
(Guitar 1)
Between a [G]Rock [Dsus4]and a [Em7]city[Csus4],

And i've [G]Got to [Dsus4]make i[Em7]t on[Csus4] my own,

Try it [G]out, try it a[Dsus4]ll, keep it c[B7]lose bla bla o[Em7]oh,
Oh where you [G]been, Oh you so [Dsus]thin, I've been w[B7]orking off my socks not going to the [Em7]gym,
[G]Hanging out with [Dsus4]??????? and [Em7]singing until the morning [Csus4]light...
Until I figure out,

At least I know,

Yeah until I figure out,
(Guitar 1 Play Intro)

OUTRO- Play same as intro
but for now I say goodbye

For now I say goodbye,

For now I say goodbye...

Ooooh Adios adios adios,

Ooooh Adios adios adios,


|================================|
| Tabbed by Philip Vasquez |
| For any questions or comments: |
| flipsta.philip@gmail.com |
|================================|
thx to Philly D & Romox for help lol.Any questions contact flipsta.philip@gmail.com

Important: The song above is NOT stored on the Chordie server. The original song is hosted at www.guitaretab.com. Chordie works as a search engine and provides on-the-fly formatting. Chordie does not index songs against artists'/composers' will. To remove this song please click here.

Text color:
Chord color:
Chord grids: 
Font size:    
Page size: 

B7 Csus2 Csus4 Dsus Dsus4 Em Em7 G
variations - click chord images

Login - add to songbook

Transpose chords

Tuning

Rating click stars to rate

Layout
Accuracy

SHARE PAGE  




You need to log in to post comments